busca

Débil Metal

Mamonas Assassinas

Tom: E
* harmonic
~ vibrato   (VIBRAR CORDA)
x palm mute (ABAFAR CORDA)
/ slide     (CORRER DEDO)

E|-------------------------------------------------------------------------------|
B|-------------------------------------------------------------------------------|
G|-------------------4-3------------------------------------4-3------------------|
D|-------------5-4----------5-4------------------------5-4---------5-4-----------|
A|---------------------------------5-4*------------------------------------------|
E|-(0x0x0x)--2-----2------2-----2----------0x-0x-0x--2-----2-----2-------2---5~4*|  (4x)
                                                                         
(intro) E F#  F# G  E F#  E F# F# G F# E F#

  E             F#
Walking in the dark
    E                  F#
now there's just some cookies
 F#           G
it's not for you
  F#             G
I know it's not yet
E                F#
I just can't explain
E              F#
it melts in my mouth.
 E       F#            Bm
Dying to me now is popcorn.

 Bm             A
Can't you understand?
 A                    E
Can't you understand, boy?
 E              D  D  D  A
So, shake your head

So, shake your head, sucker!

E|-------------------------------------------------------------------------------|
B|-------------------------------------------------------------------------------|
G|-------------------4-3------------------------------------4-3------------------|
D|-------------5-4----------5-4------------------------5-4---------5-4-----------|
A|---------------------------------5-4*------------------------------------------|
E|-(0x0x0x)--2-----2------2-----2----------0x-0x-0x--2-----2-----2-------2---5~4*|  (2x)
                                                                         
(solo)
(*palhetar rápido diversas vezes)
E|----------------------|-----------------------|------------------------|------|
B|-------2*-3*-5*-3*-5^-|--5^-5-3-2-3-5-2-------|------2-3---2-----------|------|
G|-3*-4*----------------|-----------------4-3---|--3-4-----4---4-3-------|------|
D|----------------------|-----------------------|-------------------5-4--|--2---|
A|----------------------|-----------------------|------------------------|------|
E|----------------------|-----------------------|------------------------|------|

(palhetar rápidamente nessa parte de baixo)
E|-----6---------------------------------------------------------------|
B|-7-8---8-7-8-7---7---------------------------------------------------|
G|---------------9---9--7-9-7-6-7-6----6-------------------------------|
D|---------------------------------9----9-8-9-8------8-----------------|
A|-----------------------------------------------10-----10-9-7-9-10----|
E|---------------------------------------------------------------------|

(não palhetar rápidamente nessa parte de baixo)
E|-------------------9--14--9----------9-|-14--9-------------------|-----------------|
B|---------------11-----------11----11---|---------12--------------|------12-11-12^--|
G|------------11-----------------11------|------------12-----------|---11------------|
D|---------11----------------------------|---------------12--------|-x---------------|
A|--9-H-13-------------------------------|------------------14--10-|-----------------|
E|---------------------------------------|-------------------------|-----------------|

(não palhetar rápido nessa parte de baixo)
E|-------------------------|-----------------------|--------------------|
B|--5-4--0--5-4--0--5^-4h5-|-7^-7^-7^-7-5--7-HA|----|--5-4-0--5--4-0-----|
G|-------------------------|-----------------7-HA|--|-----------------2--|
D|-------------------------|-------------------7-HA|--------------------|
A|-------------------------|-----------------------|--------------------|
E|-------------------------|-----------------------|--------------------|

(não palhetar rápido nessa parte de baixo)
E|---------------------------------3-5--7----5-|
B|--------------------------3-5-7------------5-|
G|-------2-4-6-------2-4-6---------------------|
D|-2-4-6-------2-4-6---------------------------|
A|---------------------------------------------|
E|---------------------------------------------|

(palhetar rápidamente so essa parte de baixo)
E|--10-9-7-9-7-6-7-6---6-----------------------------------------------------------|
B|-------------------8---8-7-8-7---7-----------------------------------------------|
G|-------------------------------9---9-7-9-7-6-7-6---6-----------------------------|
D|-------------------------------------------------9---9-8-9-8----8----------------|
A|-------------------------------------------------------------10---10-9-10-9-7-9--|
E|---------------------------------------------------------------------------------|

(não palhetar rápido nessa parte de baixo)
E|---------------------------------------
B|---------------------------------------
G|------------------4-3---------4-3------
D|------------5-4---------5-4--------2---
A|---------------------------------------
E|-0x0x0x---2-----2-----2-----2----------

( E F#  F# G  E F#  E F# F# G F# E F# )

  E             F#
Walking in the dark
    E                  F#
now there's just some cookies
 F#           G
it's not for you
  F#             G
I know it's not yet
E                F#
I just can't explain
E              F#
it melts in my mouth.
 E       F#            Bm
Dying to me now is popcorn.

 Bm              A
Can't you understand?
 A                     E
Can't you understand, boy?
 E                D
So, shake your head
    D               Bm
So, shake your head, sucker!

E|-------------------------------------------------------------------------------|
B|-------------------------------------------------------------------------------|
G|-------------------4-3------------------------------------4-3------------------|
D|-------------5-4----------5-4------------------------5-4---------5-4-----------|
A|---------------------------------5-4*------------------------------------------|
E|-(0x0x0x)--2-----2------2-----2----------0x-0x-0x--2-----2-----2-------2---5~4*|

F#                  G
No more ideas, No more ideas! (2x)
       F#  F#
It's over!

Clipes

Cifra Club Pro

Aproveite o Cifra Club com benefícios exclusivos e sem anúncios
7 dias grátis
Cifra Club Pro
Aproveite o Cifra Club com benefícios exclusivos e sem anúncios
7 dias grátis