busca

Débil Metal

Mamonas Assassinas

Tom: G
(intro 4x)

E|-----------------------------------------------------------|
B|-----------------------------------------------------------|
G|----------4-3------------------------------4-3-------------|
D|----5-4---------5-4------------------5-4---------5-4-------|
A|----------------------5-4~~--------------------------------|
E|--2-----2-----2-----2--------0-0-0-2-----2-----2-----5-4~~-|

(parte 2 - 4x)
E|-----------------------------------------------------------|
B|-----------------------------------------------------------|
G|-----------------------------------------------------------|
D|-0h4-x-x-x-x-x-0h4-x-x-x-7\6-0h4-x-x-x-x-x-x-0h4-x-x-x-6\5-|
A|-0h4-x-x-x-x-x-0h4-x-x-x-7\6-0h4-x-x-x-x-x-x-0h4-x-x-x-6\5-|
E|-0h2-x-x-x-x-x-0h2-x-x-x-5\4-0h2-x-x-x-x-x-x-0h2-x-x-x-4\3-|

(parte 3)
E|-----------------------|
B|-----------------------|
G|--4-----2-----9-----7--|
D|--4-----2-----9-----7--|
A|--2-----0-----7-----5--|
E|-----------------------|

(intro)

(solo)
E|--------------------------------------------------------------------6---------------------------
B|-------2*-3*-5*-3*-5^--5-3-2-3-5-2---------2-3---2--------------7-8---8-7-8-7---7---------------
G|-3*-4*-----------------------------4-3-3-4-----4---4-3------------------------9---9-7-9-7-6-7-6-
D|-------------------------------------------------------5-4--2-----------------------------------
A|------------------------------------------------------------------------------------------------
E|------------------------------------------------------------------------------------------------

E|----------------------------------------------9-14-9--------9-14-9----------------------------
B|-------------------------------------------11--------11--11--------12---------------12-11-12^-
G|---6-------------------------------------11------------11------------12----------11-----------
D|-9---9-8-9-8----8----------------------11------------------------------12------x--------------
A|-------------10---10-9-7-9-10-----9h13-----------------------------------14-10----------------
E|----------------------------------------------------------------------------------------------

E|-----------------------------------------------------------------------------------3-5-7---5-
B|-5-4-0-5-4-0-5^-4h5-7^-7^-7^-7-5-7-----5-4-0-5-4-----------------------------3-5-7---------5-
G|----------------------------------7--------------2---------2-4-6-------2-4-6-----------------
D|-----------------------------------7-----------------2-4-6-------2-4-6-----------------------
A|---------------------------------------------------------------------------------------------
E|---------------------------------------------------------------------------------------------

E|-10-9-7-9-7-6-7-6---6------------------------------------------------------------
B|------------------8---8-7-8-7---7------------------------------------------------
G|------------------------------9---9-7-9-7-6-7-6---6------------------------------
D|------------------------------------------------9---9-8-9-8----8-----------------
A|------------------------------------------------------------10---10-9-10-9-7-9---
E|---------------------------------------------------------------------------------

E|-----------------------------------
B|-----------------------------------
G|---------------4-3---------4-3-----
D|---------5-4---------5-4-------2~~-
A|-----------------------------------
E|-0-0-0-2-----2-----2-----2---------

(parte 1)

(parte 2)

(parte 4 - 2x)
E|------------------------------------------------------------------------------------------------
B|------------------------------------------------------------------------------------------------
G|-4-x-x-x-4-x-4-x-x-4-x-x-4-x-x-2-x-x-2-x-x-2-x-x-2-x-x-2-x-x-2-x-9-x-x-9-x-x-9-x-x-9-x--x-9-x-x-
D|-4-x-x-x-4-x-4-x-x-4-x-x-4-x-x-2-x-x-2-x-x-2-x-x-2-x-x-2-x-x-2-x-9-x-x-9-x-x-9-x-x-9-x--x-9-x-x-
A|-2-x-x-x-2-x-2-x-x-2-x-x-2-x-x-0-x-x-0-x-x-0-x-x-0-x-x-0-x-x-0-x-7-x-x-7-x-x-7-x-x-7-x--x-7-x-x-
E|------------------------------------------------------------------------------------------------

E|-----------------------------------|
B|-----------------------------------|
G|-9-x--9--7-x--x-7--x-x-7--x-x--7-x-| 
D|-9-x--9--7-x--x-7--x-x-7--x-x--7-x-|
A|-7-x--7--5-x--x-5--x-x-5--x-x--5-x-|
E|-----------------------------------|

(intro)

Clipes

Cifra Club Pro

Aproveite o Cifra Club com benefícios exclusivos e sem anúncios
7 dias grátis
Cifra Club Pro
Aproveite o Cifra Club com benefícios exclusivos e sem anúncios
7 dias grátis