Débil Metal

Mamonas Assassinas

Principal
A5
12
X022XX
B5
134
X244XX
D5
134
X577XX
D5/Db
134
X477XX
E5
12
022XXX
F#5
134
244XXX
Tom: G
* harmonic
~ vibrato
x alavancada
/ slide

#1t1#Intro: (4 vezes)
#1t2#e|-----------------------------------------------------------------------------|
B|-----------------------------------------------------------------------------|
G|-------------------4-3----------------------------------4-3------------------|
D|-------------5-4----------5-4---------------------5-4---------5-4------------|
A|---------------------------------5-4-----------------------------------------|
E|--0-0-0----2-----2------2-----2----------0-0-0--2-----2-----2-------2---4-5~-|#/1t2##/1t1#

#2t1##2t2#e|----------|
B|----------|
G|----------|
D|----------|
A|----------|
E|-0-0-0----|#/2t2##/2t1#

2X :F#5 D5/Db:
   :F#5 A5/G#:

Walking in the dark now there's just some cookies.
it's not for you I know it's not yet.
 I just can't explain it melts in my mouth. 
Dying to me now is popcorn. 
B5          A5
Can't you understand?
                      E5
Can't you understand, boy? 

                 D5   A5
So, shake your head

So, shake your head, sucker!

INTRO 4X 


solo by william 

(o solo tá na escala menor no modo IV dorico #4 e o tom da musika tá em b menor(sí)
primeira parte usar ligados quando for subir e descer a escála)


#3t1##3t2#e|----------------------------------------------------------------------------|
B|---------2---2-3-2-3-5-3-5-5~--5~---3-2-3-5-3-2--------2-3-2---2-------------|
G|-3-4-3-4---4-----------------------------------4-3--4-------4---4-3---------|
D|--------------------------------------------------------------------4/5-4-2~|
A|----------------------------------------------------------------------------|
E|----------------------------------------------------------------------------|#/3t2##/3t1#

(segunda parte usar palhetada ao subir a escala)

#4t1##4t2#e|-2-3-6-3-2-3-2---2-----------------------------|
B|---------------5---5-3-2-3-2---2---------------|
G|-----------------------------4---4-3-----------|
D|-------------------------------------4-5-4-5---|
A|-----------------------------------------------|
E|-----------------------------------------------|#/4t2##/4t1#

HARPEJOS

(faça o terceiro shape(desenho) da tríade maior começando de f# maior (FÁ)

#5t1##5t2#e|-------------9-13-9---------------------------------------------|
B|----------11--------11--11-10-14-10-12----------11-12-11-12-12~-|
G|--------11------------11--------------12------------------------|
D|------11--------------------------------12----------------------|
A|-9-13--------------------------------------10-9-----------------|
E|----------------------------------------------------------------|#/5t2##/5t1#

#6t1#(use ligados,palhetada alternada armonicos naturais e alavancadas prá fazê essa pt.)
#6t2#e|--------------------------7*----------------------------------------------
B|---5-4---5-4---5x-7~7~7~5--7*-----5-4---5-4---2---------------------------
G|-4-----4-----4--------------7*x-4-----4-----4-----------2-4-5-------2-4-5-
D|--------------------------------------------------2-4-5-------2-4-5-------
A|--------------------------------------------------------------------------
E|--------------------------------------------------------------------------#/6t2##/6t1#

#7t1##7t2#e|-------3-5-7-------3-5-7>5-3-|
B|-3-5-7-------3-5-7---------3-|
G|---------------------------3-|
D|-----------------------------|
A|-----------------------------|
E|-----------------------------|#/7t2##/7t1#

TAPPING (na escala menor)

#8t1##8t2#e|-9----10-9-7-9-7-6-7-6--------------------------------------------------------|
B|---10------------------8-11-8-7-8-7-------------------------------------------|
G|------------------------------------9-11-9-7-9-7-6-7-6------------------------|
D|-------------------------------------------------------9-11-9-8-9-8-------5~--|
A|--------------------------------------------------------------------9-7-9-----|
E|------------------------------------------------------------------------------|#/8t2##/8t1#

FIM DO SOLO

#9t1##9t2#e|---------------------------|
B|---------------------------|
G|-------------4-3-----4-4---|
D|---------5-4-----5-4-----2-|
A|---------------------------|
E|-0-0-0-2-------------------|#/9t2##/9t1#

repete INTRO 4x


Walking in the dark now there's just some cookies.

it's not for you I know it's not yet.
  
I just can't explain it melts in my mouth.
    
Dying to me now is popcorn. 

B5          A5
Can't you understand?
                      E5
Can't you understand, boy? 

                 D5   A5
So, shake your head

So, shake your head, sucker!


repete INTRO + 4x na terceira vez já entra o vocala junto 

no more ideas,no more ideas 
it's oveeeeeer !!!


Composição: Bento Hinoto / Dinho / Júlio Rasec / Samuel Reoli / Sérgio ReoliColaboração e revisão: william moura