busca

Jumento Celestino

Mamonas Assassinas

Tom: C
[Intro]

De quem é esse jegue?!
De quem é esse jegue?!
De quem é esse jegue...
Ô rapá!! Num é jegue não é jumentio!

( E  F  G )
( E  F  G )
( E  F )

(Riff 1)

E|----------------------------------------------------|
B|----------------------------------------------------|
G|-12p0-0-10p0-0-9p0-7p0-0-0-0-0-0-0------------------|
D|----------------------------------------------------|
A|----------------------------------------------------|
E|----------------------------------------------------|

E|----------------------------------------------------|
B|----------------------------------------------------|
G|10p0-0-9p0-0-7p0-5p0-0-0-0-0-0-0--------------------|  (2x)
D|----------------------------------------------------|
A|----------------------------------------------------|
E|----------------------------------------------------|

E|----------------------------------------------------|
B|----------------------------------------------------|
G|-12p0-0-10p0-0-9p0-7p0-0-9p0-5p0-7p0-0-4p0-0-2p0----|
D|------------------------------------------------2/5-|
A|----------------------------------------------------|
E|----------------------------------------------------|

(Riff 2)

E|----------------------------------------------------|
B|----------------------------------------------------|
G|-2p0-0-0-0-0-0-0------------------------------------|
D|----------------------------------------------------|
A|----------------------------------------------------|
E|----------------------------------------------------|

[Primeira Parte] (Riff 1)

 G
Tava ruim lá na Bahia, profissão de bóia-fria
  G
Trabalhando noite e dia não era isso que eu queria
G
Eu vim embora pra São Paulo
G
Eu vim no lombo do jumento
 G
Com pouco conhecimento
G
Enfrentando chuva e vento
 G
Dando um peido fedorento
G
 Até na bunda fez um calo
  G
Chegando na capital
G
Uns puta predião legal
G
As "mina" pagando um pau
 G
Pois meu jumento andava mal
  G
Precisando reforma
 G
Fiz a pintura
   G
Importei quatro ferradura
  G
Troquei até a dentadura
G
E pra completá a belezura
G
Eu instalei um Roadstar

[Segunda Parte]

( E  F  G )
( E  F  G )
( E  F  G )
( E  F )

    G
Descendo com o jumento na maior vula
                E  F  G
Ultrapassei farol vermelho dei de frente com uma mula
 E  F  G
Sai avoando parecia um foguete
               E  F  G                          E  F  G
Só num estourei meu coco, pois tava de capacete
                    E  F  G
Me alevantei e o dono da mula gritando
                  E  F  G
O povo em volta tudo olhando, ninguém pra me socorrer
                             E  F  G
Fugi mancando, a multidão se amultuando
                      E  F  G                   E F
O povo tudo gritando: "ô baiano, cê vai morrer"

(Riff 2)

[Solo]  G

[Terceira Parte]

 G
Despois desse sofrimeto a maior desilusão
  G
Pra aumentar meu lamento foi simbora meu jumento
   G
E me deixou com as prestação
G
E hoje eu to arrependido de ter feito migração
    G
Volto pra casa fudido com um monte de apelido
G
E o mais bonito é cabeção

[Solo] G

E|----------------------------------------------------------------|
B|--8----------------------------10b12r10-8-----------------------|
G|---7-9b10--9b10~-9b10r9-7----7------------7h9p7---------------0-|
D|--------------------------7h9------------------9p7--3/5-5-5-5~--|
A|----------------------------------------------------------------|
E|----------------------------------------------------------------|

Clipes