busca

Jumento Celestino

Mamonas Assassinas

Tom: Am
(primeira parte)
E|---------------------------------------
B|---------------------------------------
G|-1---------------1---------------1-----
D|-2---3---5-------2---3---5-------2---3-
A|-2---3---5-------2---3---5-------2---3-
E|-0---1---3-------0---1---3-------0---1-

(segunda parte)
E|-------------------------------------------------------
B|-------------------------------------------------------
G|-12-0-10-0-9-0-7-0-0-0-0-0-0-9-0-7-0-5-0-4-0-0-0-0-0-0- (2 vezes)
D|-------------------------------------------------------
A|-------------------------------------------------------
E|-------------------------------------------------------

(terceira parte)
E|-----------------------------------------------------
B|-----------------------------------------------------
G|-12-0-10-0-9-0-7-0-9-7-5\7-7-0-5-0-4-0-3-0-0-0-0-0-0-
D|-----------------------------------------------------
A|-----------------------------------------------------
E|-----------------------------------------------------

(quarta parte)
E|-------------------------------------------------------------------------------------------------
B|-------------------------------------------------------------------------------------------------
G|-------------------------------------------------------------------------------------------------
D|-3-0-0-0-0-0-0-0-3-0-0-0-0-0-0-0-3-0-0-0-0-0-0-0-3-0-0-0-0-0-0-0-3-0-0-0-0-0-0-0-3-0-0-0-0-0-0-0-
A|-------------------------------------------------------------------------------------------------
E|-------------------------------------------------------------------------------------------------

E|---------------------------------------------------------------------
B|---------------------------------------------------------------------
G|-3-0-0-0-0-0-0-0-3-0-0-0-0-0-0-0-3-0-0-0-0-0-0-0-3-0-0-0-0-0-0-0-3---
D|---------------------------------------------------------------------
A|---------------------------------------------------------------------
E|---------------------------------------------------------------------

(quinta parte)
E|---------------------------------------------
B|---------------------------------------------
G|-1-----------------1------------------------- (varias vezes)
D|-2-3-5-------------2-3-5-x-x-x-x-x-x-x-x-x-x-
A|-2-3-5-------------2-3-5-x-x-x-x-x-x-x-x-x-x-
E|-0-1-3-------------0-1-3-x-x-x-x-x-x-x-x-x-x-

(repete quarta parte)

(sexta parte)
E|-----------0-|-------------------------------------|
B|---------0---|-------------------------------------|
G|-------1-----|-------------------------------------|
D|-----2-------|-(nessa parte você faz o solo final)-|
A|---2---------|-------------------------------------|
E|-0-----------|-------------------------------------|

Clipes