busca

Lá Vem o Alemão

Mamonas Assassinas

 Nessa musica tenha muita + muita atensão no tempo d cada acorde!!!!!!!!!!!!!!!!

Intro

G------7---7---------------------------
D-------------4---4---5---5------------ 1X
A---5-5-5-5----------------------------
E----------2-2-2-2-3-3-3-3--5-5-5---5-5

Base  So de pensar que nos dois... 
G------7---7-----------------------------
D-------------4---4----5---5----7--7----- 1X 
A---5-5-5-5------------------------------
E----------2-2-2-2--3-3-3-3--5-5-5-5-----


G------7---7-------------------------------------
D-------------4---4----5---5----7----------------- 1X 
A---5-5-5-5--------------------------------------
E----------2-2-2-2--3-3-3-3--5-5----5-5------


G------7---7-----------------------------
D-------------4---4----5---5----7---7---- 1X 
A---5-5-5-5------------------------------
E----------2-2-2-2--3-3-3-3--5-5-5-5------


G------7---7-------------------------------------
D-------------4---4----5---5--------------------- 1X 
A---5-5-5-5--------------------------------------
E----------2-2-2-2--3-3-3-3--5-5--5-5--------------

Refrão 

Subiu a serra... 

G---------------------------------------------------------
D--------------------------------------------------------- 2X
A---5-5--5--5-5-5-----------------------------------------
E----------------2-2--2--2-2-2-3-3--3--3-3-3-5-5--5--5-5-5

Depois do refrão (estrumental)

G------7---7---------------------------
D-------------4---4---5---5----7---7----- 1X
A---5-5-5-5----------------------------
E----------2-2-2-2-3-3-3-3--5-5-5-5--

G------7---7---------------------------
D-------------4---4---5---5------------ 1X
A---5-5-5-5----------------------------
E----------2-2-2-2-3-3-3-3--5-5-5---5-5

Base o amor é uma...  

G------7---7-----------------------------
D-------------4---4----5---5----7--7----- 1X 
A---5-5-5-5------------------------------
E----------2-2-2-2--3-3-3-3--5-5-5-5-----


G------7---7-------------------------------------
D-------------4---4----5---5----7----------------- 1X 
A---5-5-5-5--------------------------------------
E----------2-2-2-2--3-3-3-3--5-5----5-5------


G------7---7-----------------------------
D-------------4---4----5---5----7---7---- 1X 
A---5-5-5-5------------------------------
E----------2-2-2-2--3-3-3-3--5-5-5-5------


G------7---7-------------------------------------
D-------------4---4----5---5--------------------- 1X 
A---5-5-5-5--------------------------------------
E----------2-2-2-2--3-3-3-3--5-5--5-5--------------

Refrão até o fim da musica

G---------------------------------------------------------
D--------------------------------------------------------- 
A---5-5--5--5-5-5-----------------------------------------
E----------------2-2--2--2-2-2-3-3--3--3-3-3-5-5--5--5-5-5

Ae o samuel distroi nessa musica!!!!!!!!!

Clipes