busca

Casa Pré-fabricada

Marcelo Camelo

Tom: G#
Intro: (Ab7+ Bbm)    
     Ab7+    Bbm    Ab7+   Bbm    Ab7+   Bbm    Ab7+   Bbm
E|--------------------------------------------------|
B|----------10-9--------10-9--------10-9------------|
G|----6-----------6-----------6-----------6---------|
D|--------------------------------------------------|
A|--------------------------------------------------|
E|--------------------------------------------------|

E|--------------------------------------------------|
B|----------10-9--------10-9--------10-9--5---------|
G|----6-----------6-----------6---------------------|
D|--------------------------------------------------|
A|--------------------------------------------------|
E|--------------------------------------------------|

riff1                         riff2  
(... braços,    castos)        (...abrigo)   
(... tortas)                   (... nota) 
E|--------------------------|   E|--------------------------|
B|-------------13-11-9-8----|   B|-------------13-11-9-8-9--|
G|----6--8-10---------------|   G|----6--8-10---------------|
D|--------------------------|   D|--------------------------|
A|--------------------------|   A|--------------------------|
E|--------------------------|   E|--------------------------|

riff3(dedilhado final)
E|-----------------------------------------------------|
B|-------------10-9-----------10-9-----------10-9--5---|
G|----6--9-6-7-------6--9-6-7-------6--9-6-7-----------|
D|-----------------------------------------------------|
A|-----------------------------------------------------|
E|-----------------------------------------------------|

E|------------------------9-------------------------------------|
B|-----------10-9-----------12-10-----------10-9-----------10-9-|
G|--6--9-6-7-------6--9-6----------6--9-6-7-------6--9-6-7------|
D|--------------------------------------------------------------|
A|--------------------------------------------------------------|
E|--------------------------------------------------------------|

Ab7+      Bbm      Ab7+    Bbm   Dbm   Eb        Ab7+    
Abre os teus armários eu estou a te esperar,
       Bbm     Eb     Fm                Bbm        Eb
Para ver deitar o sol   sobre os teus braços, castos
Ab7+      Bbm    Ab7+  Bbm       Dbm      Eb     Ab7+    
Cobre a culpa vã,    até amanhã eu vou ficar,
     Bbm      Eb       Fm        Bbm        Eb
E fazer do teu sorriso   um abrigo

Fm                  Cm             Bbm      Eb         
Canta que é no canto que eu vou chegar
Fm                  Cm               Bbm         Eb
Canta o teu encanto que é pra me encantar
Fm             Cm    Bbm                  Eb                Ab7+     
Canta para mim,    qualquer coisa assim sobre você
       Bbm      Eb     Ab7+ Bbm        Eb    
Que explique a minha paz,tristeza nunca

Ab7+        Bbm      Ab7+        Bbm    Dbm          Eb    Ab7+    
Mais vale o meu pranto que este canto em solidão,
             Bbm       Eb       Fm           Bbm       Eb
Nesta espera o mundo gira em linhas tortas
Ab7+    Bbm    Ab7+    Bbm         Dbm   Eb         Ab7+    
Abre essa janela     a    Primavera quer entrar
         Bbm      Eb      Fm        Bbm        Eb
Pra fazer da nossa voz uma só nota

Fm                  Cm             Bbm      Eb    
Canto que é de canto que eu vou chegar,
Fm                    Cm               Bbm       Eb    
Canto e toco um tanto que é pra te encantar
Fm            Cm    Bbm          Eb             Ab7+     
Canto para mim,   qualquer coisa assim sobre você
       Bbm      Eb     Ab7+ Bbm         Eb     Ab7+
Que explique a minha paz,tristeza  nunca mais

Clipes