busca

Janta

Marcelo Camelo

Tom: C
[Intro]

  C               Am
E|---3-0-3/5-3-0---------------------------|
B|1--1-1-0---0-0--1----3--1--3/5-5\3--1----|
G|0--0------------2------------------------|
D|2---------------2--2---------------------|
A|3---------------0------------------------|
E|-----------------------------------------|

  C                   Am
E|-----3---0-------------------------------|
B|-----1---1----3--1-------0---------------|
G|-----0-0------0-----0h2--0--0-----0----0-|
D|--2--------2--2----------0----0h2--0h2---|
A|3-------------------0--------------------|
E|-----------------------------------------|
                         
C                Am  C                   Am
Eu quis te conhecer,  mas tenho que aceitar
     C            Am                    G
Caberá ao nosso amor o eterno ou o não dá
 G#°        Am          G/B
Pode ser cruel a eternidade
            Am           G        C    G
Eu ando em frente por sentir vontade

C                 Am C                Am
Eu quis te convencer, mas chega insistir
     C                       Am      G
Caberá ao nosso amor por o que há de vir
 G#°      Am           G/B
Pode ser a eternidade má
            Am           G        C   G
Eu ando em frente pra sentir saudade

 C                             Am
Paper clips and crayons in my bed
C                          Am
Everybody thinks that I’m sad
C                        Am                G
I'll take a ride in melodies and bees and birds
 G#°          Am     G/B
will hear my words
            Am               G        C   G
will be both us and you and them together

C                    Am     C                       Am
I can forget about myself trying to be everybody else
C                           Am  G
I feel alright that we can go away
G#°            Am   G/B
And please my day
              Am              G       C    G
I’ll let you stay with me if you surrender

[Dedilhado estrofes]

  C               Am
E|---3-0-3/5-3-0---------------------------|
B|1--1-1-0---0-0--1----3--1--3/5-5\3--1----|
G|0--0------------2------------------------||
D|2---------------2--2---------------------|
A|3---------------0------------------------|
E|-----------------------------------------|

  C               Am
E|---3-0-3/5-3-0---------------------------|
B|1--1-1-0---0-0--1----3--1--3/5-----------|
G|0--0------------2------------------------|
D|2---------------2--2---------------------|
A|3---------------0------------------------|
E|-------------------------------3---------|

  G                     G#º     Am
E|---0----1---3/8-7---------7--------------|
B|3-------------------------6-------3---1--|
G|-----0----0---------0---7---7-----2---2--|
D|--------0---------5---6---------2---2---2|
A|---2--------------------------0----------|
E|3----------------------------------------|


       G/B             Am
E|3/5--3-----------------------------------|
B|-------0---0---0---0-----1--3-6--5--3----|
G|-----------------------------------------|
D|---------2-------------2------7--5--3----|
A|-----2-------5---3---0-------------------|
E|-----------------------------------------|

[Passagens]

  C                G
E|-------------------------0---------------|
B|---------1-----------3-----3-------------|
G|----0--------0-----0---0-----------------|
D|--2----2---2---2-------------------------|
A|3----------------------------------------|
E|-----------------3-----------------------|

  C               Am
E|-----------------------------------------|
B|--------1--------------------------------|
G|----0-------0--------2-------------------|
D|--2---2---2---2----2---2---2---2---------|
A|3----------------0-----------------------|
E|-------------------------0---3-----------|

Clipes