busca

Mais Tarde

Marcelo Camelo

Tom: F
Intro: F  C  Dm

Solinho do teclado:
e|-----------------------|
B|--6-8-6---6------------|
G|--------7---7-5---5-7--| 4x
D|----------------7------|
A|-----------------------|
E|-----------------------|

Riff 1 (F C Dm):
e|--------------------------|------------------------------------|
B|--------------------------|----------------------------6/8\6~--|
G|--10-10----5-5-7-7/9-7-7--|--10-10----5-5-7-7/9-7-7----7/9\7~--| 2x
D|--10-10--7----------------|--10-10--7--------------------------|
A|--8--8--------------------|--8--8------------------------------|
E|--------------------------|------------------------------------|


F                       Gm          C   C#°     Dm (Riff 2)
        pode ser até do corpo se entregar mais tarde
                                    F
parece simples mas a gente às vezes é

           Gm           Am
e o amor é lindo deixo
               Bb                       F            
tudo que quiser eu não me queixo em ser  ai ai ai ai
     Gm            Am            Bb
        acho normal   ver a vida feito faz o mar num grão de areia

Riff 1 (F C Dm) 1x

Riff 1 (F C Dm) 2x
é de se entregar a sorte e todo mundo vai saber 
é de se entregar a sorte e todo mundo vai saber 

   Gm                 C   C#°        Dm (Riff 2)
em ver que o vai e vem  pode ser eterno

pra ver quem manda
                 F          Gm    Am
acho que não vai dar tô cansado demais
   Bb                 F
vou ver a vida a pé     ai ai ai ai
      Gm            Am             Bb
        acho normal   tá no mundo feito faz o mar num grão de areia


final: (F C Dm) Dm C/D
e|---------10-9-9-10-10/12-10-10--|
B|--------------------------------|

G|--10-10-------------------------| 4x, e encerra com o C/D
D|--10-10-------------------------|
A|--8--8--------------------------|
E|--------------------------------|


Riff 2: Dm e C/D
e|-5-5---5-5-5---5-5-5--5--|
B|-6-5---6-5-6---6-5-6--5--|
G|-7-5---7-5-7---7-5-7--5--| 
D|-7-5---7-5-7---7-5-7--5--|
A|-5-5---5-5-5---5-5-5--5--|
E|-------------------------|

É só tocar Dm e C/D, intercalando os acordes...
Esses riff's não têm uma certa seqüência, nem os solinhos.
É mais na base da criatividade mesmo! :)

Clipes

Cifra Club Pro

Aproveite o Cifra Club com benefícios exclusivos e sem anúncios
7 dias grátis
Cifra Club Pro
Aproveite o Cifra Club com benefícios exclusivos e sem anúncios
7 dias grátis