busca

Ô Ô

Marcelo Camelo

Tom: A (forma dos acordes no tom de G) Capotraste na 2ª casa
Intro 2x: G  D/F#  Em
E|--3----3-3-2-2-0-0-0-7-7-5-5-3-3-3--3-3-2-2-0-0-------0------------------|
A|--5----------------2-------------5--------------------2------------------|
D|--5----------------2-------------5--------------------2------------------|
G|--4----------------0-------------4--------------------0------------------|
B|--3----------------0-------------3--------------------0------------------|
E|--3----------------0-------------3--------------------0------------------|

E|----3------------------------3--------------------------3------3-------|
A|----2------2-5-7\5--2~---2p0---0-2-5~--10-9-7\5-2~---2p0---0-2-2-------|
D|----0----------------------------------------------------------0-------|
G|----0----------------------------------------------------------0-------|
B|----3----------------------------------------------------------3-------|
E|----3----------------------------------------------------------3-------|


G                 Em              G
Dentro dessa noite    tudo vai girar
               Em
Dentro dessa noite tudo vai
            Am   D
Pode estar até
            Am  D
Pode estar até   da verdade

( G  Em  G  Em )

G                       Em                       G
Tudo que eu fizer vai ser pra ver aos olhos dela
                            Em
Vai sobrar carinho se faltar estrago ou carnaval
             Am  D
E vai dançar até
             Am  D        G
Vai dançar até    a verdade

( G  Em  G  Em )

Clipes

Cifra Club Pro

Aproveite o Cifra Club com benefícios exclusivos e sem anúncios
7 dias grátis
Cifra Club Pro
Aproveite o Cifra Club com benefícios exclusivos e sem anúncios
7 dias grátis