busca

Vermelho (Versão do Mormaço)

Marcelo Camelo

Tom: G
(DEDILHADO PADRÂO):

E|----------2---------------------------------------|
B|--2---2---1---------------------------------------|
G|--1---1-------------------------------------------|
D|--------0-----------------------------------------|
A|----0---------------------------------------------|
E|0-------------------------------------------------|

G  D        G                 D
 Ah as vezes     eu só quero descansar
G          Bm
  Desacreditar no espelho
Em             D/F#
  Ver o sol se pôr vermelho
G  D
 Ah acho graça
G                  D
  Que isso sempre foi assim
G             Bm
  Mas você me chama pro mundo
Em              A
E me faz sair do fundo de onde eu tô (A7 B7 C7) de novo

    D      G    Gm6    D       D      A7
E|-5-5-5--7-7--3-3-3--5-5--|--5-5-5--0-0------------------|
B|-7-7-7--8-8--3-3-3--7-7--|--7-7-7--2-2------------------|
G|-7-7-7--7-7--3-3-3--7-7--|--7-7-7--0-0--0---------------|
D|-7-7-7--9-9--5-5-5--7-7--|--7-7-7--2-2-----0h4----------|
A|-------------------------|---------------------0--------|
E|-------------------------|-----------------------0h2----|

D      G   Gm6      D
 Nada sei    dessa tarde
           A7
Se você não vem
D       G   Gm6     D
 Sigo o sol   na cidade
            A7
Pra te procurar

G D             G          D
 Ah eu bem sei  onde tudo vai parar
G             Bm
 Já não tenho medo do mundo
Em            D/F#
 Sou filho da eternidade
G             D
 Trago nesses pés o vento
G            D
 Pra te carregar daqui
G            Bm
 Mas você sorri desse jeito
Em                 A
 E eu que já perdi  a hora e o lugar (A7 B7 C7)

Aceito.

( D  G  Gm6  D  A7 ) (2x)

D      G   Gm6      D
 Nada sei    dessa tarde
             A7
Se você não vem
D       G   Gm6      D
 Sigo o sol   na cidade
            A7
Pra te procurar

OBS: O B7 e C7 que segue o A7, basta descer o A7 para a 4º e 5º casa, sem pestana(coloquei B7 e C7 só para representar).

Clipes

Cifra Club Pro

Aproveite o Cifra Club com benefícios exclusivos e sem anúncios
7 dias grátis
Cifra Club Pro
Aproveite o Cifra Club com benefícios exclusivos e sem anúncios
7 dias grátis