A
123
X02220
A9
12
X02200
Bm7
234
X24235
D/A
34
X04P23X
D/G
1234
3XX232
D5
123
XX0235
D9
12
XX0230
G
123
3X0035
G5
12
3X003X
G9
1234
3X0235
Tom: G
[Intro]

Parte 1

#1t1#   G9             D5
#1t2#E|-----5-5-2---2------5-5-2-----------------|
B|-----3-----5--------3-----5-0-------------|
G|-----2------------2-2---------------------|
D|---0------------3-------------------------|
A|------------------------------------------|
E|-3----------------------------------------|#/1t2##/1t1#

Parte 2

#2t1#   Bm7             D/A  A
#2t2#E|-----5-5-2--------------------------------|
B|-----3-----2-2----3---2-------------------|
G|-----2------------2---2-------------------|
D|---4--------------4---2-------------------|
A|-2--------------0-------------------------|
E|------------------------------------------|#/2t2##/2t1#

[Primeira Parte]

                          G9
Aí você escolhe a melhor roupa
                        D5
Aí você arruma o seu cabelo
                            Bm7
E sai com aquela sua amiga louca

Que diz que o bom da vida 
          A    D/A
É ser solteiro

                           G9
Me diz se adiantou alguma coisa
                      D5
Procurar alívio passageiro
                             Bm7
Beijar umas quatro ou cinco bocas
                                 A  D/A
Com beijos que não têm gosto de beijo

                             G9
Aí lembrou de mim, não teve jeito
                             A9
Aí lembrou de mim, não teve jeito

[Primeira Parte]

Parte 1

#3t1#   G9*               D5
#3t2#E|-----5-------5---------5-------5----------|
B|-----3-------3---------3---3---3----------|
G|---------0-----------2---2---2---2--------|
D|---0---0---0---0---0----------------------|
A|------------------------------------------|
E|-3----------------------------------------|#/3t2##/3t1#

Parte 2

#4t1#   Bm7              A             D/A
#4t2#E|-----5-------5--------x-----x-------------|
B|-----3---3---3------2-x---2-x---2h3-------|
G|---2---2---2---2----2-x---2-x---2---------|
D|--------------------2-x---2-x---2h4-------|
A|-2----------------0---x-0---x-0-----------|
E|----------------------x-----x-------------|#/4t2##/4t1#

Parte 1

#5t1#   G9*               D5
#5t2#E|-----5-------5---------5-------5----------|
B|-----3-------3---------3---3---3----------|
G|---------0-----------2---2---2---2--------|
D|---0---0---0---0---0----------------------|
A|------------------------------------------|
E|-3----------------------------------------|#/5t2##/5t1#

Parte 2

#6t1#   Bm7              A             D/A
#6t2#E|-----5-------5--------x-----x-------------|
B|-----3---3---3------2-x---2-x---2h3-------|
G|---2---2---2---2----2-x---2-x---2---------|
D|--------------------2-x---2-x---2h4-------|
A|-2----------------0---x-0---x-0-----------|
E|----------------------x-----x-------------|#/6t2##/6t1#

Parte 3

#7t1#   G9*          A9
#7t2#E|-5-5--5-5-5---0-0--0-0-0------5-----------|
B|-3-3--3-3-3---0-0--0-0-0------------------|
G|-0-0--0-0-0---2-2--2-2-2--4/6-------------|
D|-0-0--0-0-0---2-2--2-2-2------------------|
A|--------------0-0--0-0-0------------------|
E|-3-3--3-3-3-------------------------------|
   ↓ ↓  ↑ ↓ ↓   ↓ ↓  ↑ ↓ ↓#/7t2##/7t1#

[Refrão]

                 G5
Beijou a boca errada

Lembrou da boca certa
               D9
Entrou numa gelada

Lembrou da minha coberta
                     Bm7
Sabe esse alguém perfeito 

Que você tanto espera
   G5      A9
Eu era, eu era

            G5
Aí você se lembra

Que a gente se completa
                  D9
E vai voltar pra mim

Se for um pouco esperta
                       Bm7
Porque esse alguém perfeito

Que você tanto espera
   G5      A9  G5  D9
Eu era, eu era
     Bm7  A9
Eu era

[Primeira Parte]

                          G5
Aí você escolhe a melhor roupa
                        D9
Aí você arruma o seu cabelo
                            Bm7
E sai com aquela sua amiga louca

Que diz que o bom da vida 
          A9
É ser solteiro

                           G5
Me diz se adiantou alguma coisa
                      D9
Procurar alívio passageiro
                             Bm7
Beijar umas quatro ou cinco bocas
                                 A9
Com beijos que não têm gosto de beijo

                             G9
Aí lembrou de mim, não teve jeito
                             A9
Aí lembrou de mim, não teve jeito

[Refrão]

                 G5
Beijou a boca errada

Lembrou da boca certa
               D9
Entrou numa gelada

Lembrou da minha coberta
                     Bm7
Sabe esse alguém perfeito 

Que você tanto espera
   G       A9
Eu era, eu era

            G5
Aí você se lembra

Que a gente se completa
                  D9
E vai voltar pra mim

Se for um pouco esperta
                       Bm7
Porque esse alguém perfeito

Que você tanto espera
   G5      A9
Eu era, eu era

[Refrão Final]

                 G5
Beijou a boca errada

Lembrou da boca certa
               D9
Entrou numa gelada

Lembrou da minha coberta
                     Bm7
Sabe esse alguém perfeito 

Que você tanto espera
   G       A9
Eu era, eu era

            G5
Aí você se lembra

Que a gente se completa
                  D9
E vai voltar pra mim

Se for um pouco esperta
                       Bm7
Porque esse alguém perfeito

Que você tanto espera
   G5      A9
Eu era, eu era
   G5   A  D/A    A   D/G
Eu era,        eu era
Composição: Bruno Caliman / Rafael TorresColaboração e revisão: Leandro SandimLucas KappaunJulio AmbrosiniNatalia Gaffurie mais 3
Videoaula Eu Era (aula de violão completa)