Sem Me Controlar

Marcos & Belutti

A
123
X02220
A9
12
X02200
D
123
XX0232
D9
12
XX0230
E
123
022100
F#m
34
244222
Tom: G
[Intro]  F#m  D9  A9  F#m
         F#m  D9  A9  F#m

#1t1##1t2#E|----------------------|
B|-3/5-3-2--------------|
G|---------3/4-2--------|
D|---------------4/6-4--|
A|----------------------|
E|----------------------|#/1t2##/1t1#

[Riff 1]

#2t1##2t2#E|-----5-5/7-5----------|
B|-5-5---------7-5-5/7--|
G|----------------------|
D|----------------------|
A|----------------------|
E|----------------------|#/2t2##/2t1#

[Riff 2]

#3t1##3t2#E|-0h2-0----------------|
B|--------3-2--0h2------|
G|----------------------|
D|----------------------|
A|----------------------|
E|----------------------|#/3t2##/3t1#

F#m               D
  A carne é fraca, não sou de lata
A                        E     (Riff 1)
  O corpo pede, eu vou obedecer
F#m             D         (Riff 2)
  É meu instinto tudo o que sinto
A                         E
  Eu vou em busca do que dá prazer

[Pré-Refrão]

             D
Me deixei levar
E
Ah, foi de momento
 F#m
Não foi sem querer
           D  E
Percebi no ar aquele cheiro
          F#m
Que vem pra me enlouquecer

[Refrão]

              A
Sem me controlar, te pego
      E                 F#m
Te abraço, te beijo na boca
             D
Você se segurando
                A
Me diz não ser louca
                      E
Quer ter tudo no seu tempo
                  F#m         D
Tudo num certo momento  Ai Ai Ai

              A
Sem me controlar, te pego
      E                 F#m
Te abraço, te beijo na boca
             D
Você se segurando
                A
Me diz não ser louca
                      E
Quer ter tudo no seu tempo
                  F#m         D
Tudo num certo momento  Ai Ai Ai

#4t1##4t2#E|------------------------------|
B|-3/5-3-2----------------------|
G|---------3/4-2----------------|  (2x)
D|---------------4/6-4--2-2-2-4-|
A|------------------------------|
E|------------------------------|#/4t2##/4t1#

[Pré-Refrão]

             D
Me deixei levar
E
Ah, foi de momento
 F#m
Não foi sem querer
           D  E
Percebi no ar aquele cheiro
          F#m
Que vem pra me enlouquecer

[Refrão]

              A
Sem me controlar, te pego
      E                 F#m
Te abraço, te beijo na boca
             D
Você se segurando
                A
Me diz não ser louca
                      E
Quer ter tudo no seu tempo
                  F#m         D
Tudo num certo momento  Ai Ai Ai

              A
Sem me controlar, te pego
      E                 F#m
Te abraço, te beijo na boca
             D
Você se segurando
                A
Me diz não ser louca
                      E
Quer ter tudo no seu tempo
                  F#m         D
Tudo num certo momento  Ai Ai Ai

[Final]  F#m  D9  A9  F#m
         F#m  D9  A9  F#m

#5t1##5t2#E|------------------------------|
B|-3/5-3-2----------------------|
G|---------3/4-2----------------|  (2x)
D|---------------4/6-4--2-2-2-4-|
A|------------------------------|
E|------------------------------|#/5t2##/5t1#
Composição: Colaboração e revisão: Lucas KappaunMarcos PaulovitorEduardo Diase mais 11