A
123
X02220
Bm
234
X24432
D/F#
1234
2X0232
D9
12
XX0230
Em7
123
022030
G
123
320003
G5(9)
1234
3X0233
Tom: G
[Intro]
 
#1t1#            D9             G5(9)
#1t2#E|---------------|-------------------|
B|------3----3---|------3----3-------|
G|----- 2----2---|------2----2-------|
D|------0--------|------0------------|
A|---------------|-------------------|
E|---------------|------3------------|#/1t2##/1t1#


[Riff]

#2t1##2t2#E|---------------------------------------------|
B|---------------------------------------------|
G|---2---2----2p0------------------------------|
D|-----------------4--4/5\4----2p0-------0-----|
A|----------------------------------0h2—-------|
E|---------------------------------------------|#/2t2##/2t1#

#3t1##3t2#E|---------------------------------------------|
B|---------------------------------------------|
G|---2---2----2p0-------------0h2--0h2--0h2----|
D|-----------------4--4/5\4--------------------|
A|---------------------------------------------|
E|---------------------------------------------|#/3t2##/3t1#

 D9
Você tem vontades sonhos e manias
 G
Tão diferentes das minhas
Bm         A            G
E o normal é mesmo duvidar

 D9
Você curte a luz do sol e eu da lua
G
E quanto "tá" dormindo eu tô na rua
Bm         A               G
E quem vê diz que não vai durar

Em7              G
O estranho é que eu "tô"
 Bm         A
Tão feliz, tão feliz

 D9                 D/F#
Mesmo sendo o seu oposto
 G
Não faz mal eu "tô" disposto
Bm
A amar e se você topar
G
Os nossos defeitos
              D9
Vão se completar

 D9                 D/F#
Mesmo sendo o seu oposto
 G
Não faz mal eu "tô" disposto
Bm
A amar e se você topar
G
Os nossos defeitos
              D9
Vão se completar
Composição: Lucas Santos / Rafael Torres / SAMUEL DEOLLIColaboração e revisão: Marcos PauloEduardo Rochalucas batsThe hite mais 1