busca

Basta Só Você Me Olhar

Maria Cecília e Rodolfo

Tom: D
Intro 2x: A  E  F#m  D
E|-----------------0-0-0-----------------------------------------------|
B|--------3-2-0-2--------3-2-2-0-----3-3-3-2-0---2-2-2-0-2-3-----------|
G|-0-2-4-------------------------2-4-----------2-----------------------|
D|---------------------------------------------------------------------|
A|---------------------------------------------------------------------|
E|---------------------------------------------------------------------|

E|--------------0-0-0--------------------------------------------------|
B|--------2-3-2--------3-2-0-2-0---3-3-3-2-0---2-2-2-0---------3-2-0---|
G|-0-2-4-------------------------------------2---------2---2-4-------2-|
D|-------------------------------------------------------2-------------|
A|---------------------------------------------------------------------|
E|---------------------------------------------------------------------|

A                                      E
Eu te aceito outra vez já tá virando rotina
                     F#m    D
Você bater em minha porta
                         E
Dizendo que não soube o que fez
         E7
Outra vez
A                                        E
De novo vou perdoar eu não tenho outra saída
              F#m        D
Basta só você me olhar
                                E
Que eu abro as portas da minha vida
         E7
Outra vez
F#m              D       A                    E
Você sabe que eu te amo  que eu não vivo sem você
F#m                D       A                   E      E7
Só eu mesmo que me engano  se eu não perdoar você

Refrão 2x:
A                        E            F#m       D
Lá fora ninguém vai te querer como eu te quero
A                        E              F#m       D
Eu tenho verdadeira paixão  ah  como eu te quero

( A  E  F#m  D ) (2x)
E|-----------------0-0-0-----------------------------------------------|
B|--------3-2-0-2--------3-2-2-0-----3-3-3-2-0---2-2-2-0-2-3-----------|
G|-0-2-4-------------------------2-4-----------2-----------------------|
D|---------------------------------------------------------------------|
A|---------------------------------------------------------------------|
E|---------------------------------------------------------------------|

E|--------------0-0-0--------------------------------------------------|
B|--------2-3-2--------3-2-0-2-0---3-3-3-2-0---2-2-2-0---------3-2-0---|
G|-0-2-4-------------------------------------2---------2---2-4-------2-|
D|-------------------------------------------------------2-------------|
A|---------------------------------------------------------------------|
E|---------------------------------------------------------------------|

F#m              D       A                    E
Você sabe que eu te amo  que eu não vivo sem você
F#m                D       A                   E      E7
Só eu mesmo que me engano  se eu não perdoar você

Refrão 4x:
A                        E            F#m       D
Lá fora ninguém vai te querer como eu te quero
A                        E              F#m       D
Eu tenho verdadeira paixão  ah  como eu te quero

Clipes

Cifra Club Pro

Aproveite o Cifra Club com benefícios exclusivos e sem anúncios
Cifra Club Pro
Aproveite o Cifra Club com benefícios exclusivos e sem anúncios