Basta Só Você Me Olhar

Maria Cecília e Rodolfo

A
123
X02220
D
123
XX0232
E
123
022100
E7
1234
022130
F#m
34
244222
Tom: G
#1t1#Intro 2x: A  E  F#m  D
#1t2#E|-----------------0-0-0-----------------------------------------------|
B|--------3-2-0-2--------3-2-2-0-----3-3-3-2-0---2-2-2-0-2-3-----------|
G|-0-2-4-------------------------2-4-----------2-----------------------|
D|---------------------------------------------------------------------|
A|---------------------------------------------------------------------|
E|---------------------------------------------------------------------|#/1t2##/1t1#

#2t1##2t2#E|--------------0-0-0--------------------------------------------------|
B|--------2-3-2--------3-2-0-2-0---3-3-3-2-0---2-2-2-0---------3-2-0---|
G|-0-2-4-------------------------------------2---------2---2-4-------2-|
D|-------------------------------------------------------2-------------|
A|---------------------------------------------------------------------|
E|---------------------------------------------------------------------|#/2t2##/2t1#

A                                      E
Eu te aceito outra vez já tá virando rotina
                     F#m    D
Você bater em minha porta
                         E
Dizendo que não soube o que fez
         E7
Outra vez
A                                        E
De novo vou perdoar eu não tenho outra saída
              F#m        D
Basta só você me olhar
                                E
Que eu abro as portas da minha vida
         E7
Outra vez
F#m              D       A                    E
Você sabe que eu te amo  que eu não vivo sem você
F#m                D       A                   E      E7
Só eu mesmo que me engano  se eu não perdoar você

Refrão 2x:
A                        E            F#m       D
Lá fora ninguém vai te querer como eu te quero
A                        E              F#m       D
Eu tenho verdadeira paixão  ah  como eu te quero

#3t1#( A  E  F#m  D ) (2x)
#3t2#E|-----------------0-0-0-----------------------------------------------|
B|--------3-2-0-2--------3-2-2-0-----3-3-3-2-0---2-2-2-0-2-3-----------|
G|-0-2-4-------------------------2-4-----------2-----------------------|
D|---------------------------------------------------------------------|
A|---------------------------------------------------------------------|
E|---------------------------------------------------------------------|#/3t2##/3t1#

#4t1##4t2#E|--------------0-0-0--------------------------------------------------|
B|--------2-3-2--------3-2-0-2-0---3-3-3-2-0---2-2-2-0---------3-2-0---|
G|-0-2-4-------------------------------------2---------2---2-4-------2-|
D|-------------------------------------------------------2-------------|
A|---------------------------------------------------------------------|
E|---------------------------------------------------------------------|#/4t2##/4t1#

F#m              D       A                    E
Você sabe que eu te amo  que eu não vivo sem você
F#m                D       A                   E      E7
Só eu mesmo que me engano  se eu não perdoar você

Refrão 4x:
A                        E            F#m       D
Lá fora ninguém vai te querer como eu te quero
A                        E              F#m       D
Eu tenho verdadeira paixão  ah  como eu te quero
Composição: Maria Cecília / RodolfoColaboração e revisão: antonio marcosluan bragaRafael AugustoBeatriz Igrejae mais 2