A
123
X02220
B
234
X24442
C
123
X32010
Cm
234
X35543
D
123
XX0232
F
234
133211
G
123
320003
G7
34
353433
Tom: G
(intro) ( G A B ) C G C G ( C ) G

#1t1##1t2#E |-------5-5-5-5-5-5-5-5/7-|-----7-5-5-5-5-5-5-5/7---------|
B |--5-7-8---7---7---7-7----|--5-8-----7---7---7---7--------|
G |-------------------------|-------------------------------|
D |-------------------------|-------------------------5/7-5-|
A |-------------------------|-------------------------------|
E |-------------------------|-------------------------------|#/1t2##/1t1#

         D           G
O tempo vai, o tempo vem
       D                 G   G7
A vida passa e eu sem ninguém
       C (F C F C)
Cadê Você?
                    G     (C G C G)
Que nunca mais apareceu aqui
                        D                 G  G7
Que não voltou pra me fazer feliz e nem ligou
       C (F C F C)
Cadê você?
                    G     (C G C G)
Que nunca mais apareceu aqui
                        D
Que não voltou pra me fazer sorrir
         G
Então, cadê você?

(solo) ( G A B ) C G C G ( C ) G

#2t1##2t2#E |-------5-5-5-5-5-5-5-5/7-|-----7-5-5-5-5-5-5-5/7---------|
B |--5-7-8---7---7---7-7----|--5-8-----7---7---7---7--------|
G |-------------------------|-------------------------------|
D |-------------------------|-------------------------5/7-5-|
A |-------------------------|-------------------------------|
E |-------------------------|-------------------------------|#/2t2##/2t1#

            D               G
Mas não faz mal, pois eu me calo
        D              G    G7
Tá tudo bem, eu sempre falo

       C (F C F C)
Cadê Você?
                    G     (C G C G)
Que nunca mais apareceu aqui
                        D                 G  G7
Que não voltou pra me fazer feliz e nem ligou
       C (F C F C)
Cadê você?
                    G     (C G C G)
Que nunca mais apareceu aqui
                        D
Que não voltou pra me fazer sorrir
         G      G7
Então, cadê você?

       C (F C F C)
Cadê Você?
                    G     (C G C G)
Que nunca mais apareceu aqui
                        D                 G  G7
Que não voltou pra me fazer feliz e nem ligou
       C (F C F C)
Cadê você?
                    G     (C G C G)
Que nunca mais apareceu aqui
                        D
Que não voltou pra me fazer sorrir
         C      Cm  G (C) G
Então, cadê você?
Composição: Colaboração e revisão: Fagner Oliveira