Coisas Esotéricas

Maria Cecília e Rodolfo

B
234
X24442
Bbm
234
X13321
C#
234
X46664
Ebm
1234
XX1342
F#
234
244322
Tom: G
(intro 2x) F# C# Ebm B

#1t1##1t2#E|-9-7--6h7p6----6--7--6------------------6--9--7--6h7p6--6--7--6------9/11-9-7-6-|
B|------------9----------9--7--7-----6-7-9--------------9---------9--7------------|
G|--------------------------------6h8---------------------------------------------|
D|--------------------------------------------------------------------------------|
A|--------------------------------------------------------------------------------|
E|--------------------------------------------------------------------------------|#/1t2##/1t1#

F#         C#                      Ebm
Coisas esotéricas que passam na cabeça.
            Bbm                      B
Vou logo dizendo antes que eu esqueça
              C#
Coisas bem malucas como
     F#                 C#
Te amar, te amar, te amar, amar, amar

F#          C#                 Ebm
Sentimento louco, amor bem profundo,
              Bbm                  B
Acho que vou desligar-me desse mundo,
                C#                  F#       C#
Antes que enlouqueça esse meu coração

#2t1#(solo pré-refrão)
#2t2#E|-------------------------------|
B|-------7p6--9-7-6------6-7-9-7-|
G|----6-8---8-------8-6-8--------|
D|-6h8---------------------------|
A|-------------------------------|
E|-------------------------------|#/2t2##/2t1#

(refrão)
F#         C#              Ebm
A minha cabeça está virada,
              B             F#
Fico louco pela madrugada,
                C#                   Ebm
A procura de alguem um ombro pra chorar,
                  B                 F#
So por seu amor, seu amor, seu amor.
            C#                     Ebm
Sentimento louco, amor bem profundo,
             B                     F#
Acho que vou desligar-me desse mundo,
               C#                 Ebm        B
Antes que enlouqueça esse meu coração.

(repete tudo)
Composição: CARLOS EDUARDO DIASColaboração e revisão: Eduardo BittencourtCarlos SteinAlec Rodrigojaqueline silvae mais 7
Videoaula Coisas Esotéricas (aula de violão)