busca

Depois da Briga

Maria Cecília e Rodolfo

Tom: Eb (forma dos acordes no tom de D) Capotraste na 1ª casa
Intro.: G A Bm (2x)

E|-----------------------------------------------------7-9-10-9-7----------------9-7-7-------------------
B|-------------------------------5-5h7-7-7p5-------------------------7\5/7--7-5-5---------3p2------------
G|--------------------------------------------------------------------------------------------4-2-2------
D|--5/7-7--7-7h9-7--5-4-2-2/4----------------5/7-7-------------------------------------------------------
A|-------------------------------------------------------------------------------------------------------
E|-------------------------------------------------------------------------------------------------------

G     A          Bm
Sabe até que eu gosto
G           A          Bm
Das brigas que a gente tem
G            A              Bm
No momento, falamos tantas coisas
G         A            Bm
Palavras sem nexo que vem
A                   G
Mas você deve estar se perguntando
A               Bm
O porquê e qual é a razão
A                    G
Eu vou te explicar e também acho
      A                   Bm
Que você também concorda com a minha opinião

A                       G           A                    Bm
É que depois da briga a gente faz amor como nunca fez
A                       G           A                    Bm        A
É que depois da briga a gente faz amor como se fosse a primeira vez

G A Bm A (2x)

E|----------------------------------------------------------------
B|----------------------------------------------------------------
G|----------------------------------------------------------------
D|----------------------------------------------------------------
A|-0-0-0-5-4-0-5-4-0---0-0-2-0---0-0-0-5-4-0-5-4-0----0-5-7-7/9---
E|----------------------------------------------------------------

E|-------------------------------------------------------
B|-------3-2---3-2-----------5-5-3-5/7-----3-3-2-3-2-----
G|-2-2-2-----4-----4--2h4-2--------------------------4---
D|-------------------------------------------------------
A|-------------------------------------------------------
E|-------------------------------------------------------

                     G
Mas você deve estar se perguntando
A               Bm
O porquê e qual é a razão
Bm                    G
Eu vou te explicar e também acho
      A                   Bm
Que você também concorda com a minha opinião

Bm                       G           A                    Bm
É que depois da briga a gente faz amor como nunca fez
Bm                       G           A                    Bm
É que depois da briga a gente faz amor como se fosse a primeira vez


E|-----------------------------------------------
B|-----------------------------------------------
G|-----------7-6\4-2--2h4------------------------
D|-5/7-7-7-7---------------2-2p0-2-0-------------
A|-----------------------------------5-4-5-4-2---
E|-----------------------------------------------

Clipes

Cifra Club Pro

Aproveite o Cifra Club com benefícios exclusivos e sem anúncios
Cifra Club Pro
Aproveite o Cifra Club com benefícios exclusivos e sem anúncios