busca

Foi Sem Querer

Maria Cecília e Rodolfo

Tom: C
Intro 2x: C  E7  Am  Am7    F    G  C  G
E|-------------------------------------------------------------------------------------------
B|---------------------------------------------------------------------------------------555-
G|--------------------------------5---6--3---------5--------55---5h7--5--4-------------5-----
D|---------5-5---4-5-6--5-6-7-----7---4--5------5-------5/7----------------7--5--7--5--------
A|----5/7------------------------------------------------------------------------------------
E|-------------------------------------------------------------------------------------------

E|-------------------------------------------------------------------------------------------
B|-------------------------------------------------------------------------------------------
G|---7--5------------4---7----5--------------------------------------------------------------
D|-----------5----7--------------------------------------------------------------------------
A|-------------------------------------------------------------------------------------------
E|-------------------------------------------------------------------------------------------

C         E7
Foi sem querer
       Am            Am7            F
Que derramei toda emoção “hunderere"
       G            C        G
Que sequei seu coração “hunderere"
C    E7           Am          Am7           F
Me machuquei, te feri, não entendi “hunderere"
      G        C                         G
Como dói a solidão não, não, não, não, não, não

C                     E7           Am  Am7
Agora estou sozinho precisando de você
   F                           G            C  G
E você não esta por perto pra poder me ajudar
C                           E7         Am    Am7
A estrada desta vida esta difícil sem você
   F                           G            C  G
E você não esta por perto pra poder me ajudar

C        E7         Am            Am7           F
Hoje eu estou arrependida do que fiz “hunderere"
      G           C            G
Venho ti pedir perdão, perdoa paixão
C       E7            Am            Am7       F
Ai meu coração tão solitário sem você “hunderere"
       G            C                       G
Esta ardente de paixão não, não, não, não, não, não

C                     E7           Am  Am7
Agora estou sozinho precisando de você
   F                           G            C  G
E você não esta por perto pra poder me ajudar
C                           E7         Am   Am7
A estrada desta vida esta difícil sem você
   F                           G            C
E você não esta por perto pra poder me ajudar

( C    E7  Am    Am7    F    G    C    G ) (2x)

C                     E7           Am  Am7
Agora estou sozinho precisando de você
   F                           G            C  G
E você não esta por perto pra poder me ajudar
C                           E7         Am   Am7
A estrada desta vida esta difícil sem você
   F                           G            C
e você não esta por perto pra poder me ajudar  (2x)

 F                           G            C
E você não esta por perto pra poder me ajudar

( C    E7  Am    Am7    F  G    C    G ) (2x) C

Clipes

Cifra Club Pro

Aproveite o Cifra Club com benefícios exclusivos e sem anúncios
Cifra Club Pro
Aproveite o Cifra Club com benefícios exclusivos e sem anúncios