busca

Mato e Morro Por Você

Maria Cecília e Rodolfo

Tom: D
(intro 2x) D  A9  Em  G

(solo(
E|------------------------------|----------------------------------|
B|----7-7-7-7/5---5---5-7--5----|---8-8-8-8p7--7p5----5-7--7/8-7---|
G|-2------------7---7--------7--|-4-----------------7--------------|
D|------------------------------|----------------------------------|
A|------------------------------|----------------------------------|
E|------------------------------|----------------------------------|

E|-----------------------------------------------------------------|
B|----7-7-7-7/5---5---5-7--7/8--7--7/5---8-7-5-7-------------------|
G|-2------------7---7------------------7---------7-----------------|
D|-----------------------------------------------------------------|
A|-----------------------------------------------------------------|
E|-----------------------------------------------------------------|

D      A              Em
 Meu amor depois que você foi embora
        G
 Eu fiquei numa deprê danada
D          A               Em
 Chorei demais querendo um beijo
                    G
 Sem um dengo  sem carinho  só na madrugada

Bm                    A         Em
 Eu sei que eu nunca fui pra você
                       G       Bm
 Aquele amor que você tanto sonhava
                  A        Em
 Escuta o que eu vou te dizer
                     G   A         D
 Enquanto me negava como eu te amava

(refrão)
   D        A                    Em
Você não merece mesmo assim eu te amo
            G                       D
Você não merece mesmo assim eu te quero
           A                        Em
Você não merece mesmo assim eu sou maluco
        G     A      D
Mato e morro por você

(repete tudo 2x)

Clipes

Cifra Club Pro

Aproveite o Cifra Club com benefícios exclusivos e sem anúncios
Cifra Club Pro
Aproveite o Cifra Club com benefícios exclusivos e sem anúncios