A7
12
X02020
Bb
234
X13331
Cm
234
X35543
D/F#
1234
2X0232
D7
123
XX0212
Eb
234
X65343
F
234
133211
G7
34
353433
Gm
34
355333
Tom: G
#1t1#Intro: Gm  Eb  Cm  D7 
#1t2#E|-3--3-5-5/6-6\5-3--3---3-5-5/6-6\5--3--3---3-5-5/6-6\5-3-3---------|
B|--4------------------4-------------------4------------------3h4-3--|
G|-------------------------------------------------------------------|
D|-------------------------------------------------------------------|
A|-------------------------------------------------------------------|
E|-------------------------------------------------------------------|#/1t2##/1t1#

  Gm                      D/F#
Você vê esse meu jeito,  de pessoa liberada
     G7                              Cm
Mas não sabe que por dentro,  não é isso eu não sou nada
                 D7                    Gm
Tenho ares de serpente,  mas em caso de amor
                   A7                         D7
Sou pequeno sou carente,  sou tão frágil sonhador
   Gm                          D/F#
Eu me pinto e me disfarço, companheiro do perigo
    G7                         Cm
Eu me solto em sua festa,  mas sozinho eu não consigo
 D7                             Gm
Digo coisas que não faço,  faço coisas que eu não digo
                  A7                        D7
Quero ser o seu amado,  não somente o seu amigo

    Cm             F                        Bb
Cada vez, que eu sinto um beijo seu na minha face
      Gm                     Cm
Eu luto pra manter o meu disfarce
     D7                        Gm   G7
E não deixar tão claro que te quero

    Cm         F                       Bb
Cada vez,  se torna mais difícil o meu teatro
    Gm                          Cm
Não dá mais pra fugir do seu contato
  D7                  Gm  G7
Estou apaixonado por você

#2t1#( Cm  F  Bb  Gm  Cm  D7  Gm )
#2t2#E|---------------------------------------------------------------------------------------8/10-10-10h8-8---8-
B|-------3-4-6-6-4-4-3-4---4-3---------------------1--4-4-3-3--3/6-6-8-10-10/11-10-10/11----------------11--
G|-2-3-5------------------------5-3-2-3-3/5-5--2-3----------------------------------------------------------
D|----------------------------------------------------------------------------------------------------------
A|----------------------------------------------------------------------------------------------------------
E|----------------------------------------------------------------------------------------------------------#/2t2##/2t1#

#3t1##3t2#E|-8-11-10----------------------------------------------6-8-8/10-|
B|-x-------11-8-8/10---7h8h7------------10-8---------------------|
G|---------------------------9-8----8-9--------------------------|
D|-------------------------------10------------------------------|
A|---------------------------------------------------------------|
E|---------------------------------------------------------------|#/3t2##/3t1#

   Gm                          D/F#
Eu me pinto e me disfarço, companheiro do perigo
    G7                         Cm                        (Riff 1)
Eu me solto em sua festa,  mas sozinho eu não consigo
 D7   (Riff 2)                 Gm                  (Riff 3)
Digo coisas que não faço,  faço coisas que eu não digo
                  A7              (Riff 4)     D7
Quero ser o seu amado,  não somente o seu amigo

    Cm             F                        Bb
Cada vez, que eu sinto um beijo seu na minha face
      Gm                     Cm
Eu luto pra manter o meu disfarce
     D7                        Gm   G7
E não deixar tão claro que te quero

    Cm         F                       Bb
Cada vez,  se torna mais difícil o meu teatro
    Gm                          Cm
Não dá mais pra fugir do seu contato
  D7                  Gm
Estou apaixonado por você

#4t1#( Gm )
#4t2#E|-5/6-5-----|
B|-------6-8-|
G|-----------|
D|-----------|
A|-----------|
E|-----------|#/4t2##/4t1#

#5t1#Riff 1:
#5t2#E|---------|
B|---3-3h4-|
G|-5-------|
D|---------|
A|---------|
E|---------|#/5t2##/5t1#

#6t1#Riff 2:
#6t2#E|---------|
B|-4-------|
G|---2-2h3-|
D|---------|
A|---------|
E|---------|#/6t2##/6t1#

#7t1#Riff 3:
#7t2#E|--3-5-5/6-5-----|
B|----------------|
G|----------------|
D|----------------|
A|----------------|
E|----------------|#/7t2##/7t1#

#8t1#Riff 4:
#8t2#E|--5h3-3--3h2-2-|
B|---------------|
G|---------------|
D|---------------|
A|---------------|
E|---------------|#/8t2##/8t1#
Composição: Carlos Colla / Chico RoqueColaboração e revisão: Danielle Moraes