A
123
X02220
C#m
234
X46654
D
123
XX0232
E
123
022100
F#m
34
244222
Tom: G
(intro) D E A F#m D D E D E A F#m D E A

#1t1##1t2#E |-------5-4-----------------6-5----------------|
B |-----5-----7-5h7--5------6-----7-5h7--5-------|
G |-4h6-----------------4h6----------------------|
D |----------------------------------------------|
A |----------------------------------------------|
E |----------------------------------------------|#/1t2##/1t1#

#2t1##2t2#E |----------------------------------------------|
B |---------------------5h7-7-5-5---5------------|
G |-6h7-6-7-6-7-6-7-6-7-----------6--------------|
D |----------------------------------------------|
A |----------------------------------------------|
E |----------------------------------------------|#/2t2##/2t1#

#3t1##3t2#E |-------5-4-----------------5-4-4h9-9h10-9-----|
B |-----5-----7-5h7--5------5--------------------|
G |-4h6-----------------5h7----------------------|
D |----------------------------------------------|
A |----------------------------------------------|
E |----------------------------------------------|#/3t2##/3t1#

#4t1##4t2#E |----------------------------------------------|
B |---------------5-5h7--------------------------|
G |-6h7-6-7-6-4---------6-4~6h4-----6h4----------|
D |-------------7---------------7-------7--------|
A |----------------------------------------------|
E |----------------------------------------------|#/4t2##/4t1#

(no solo pode-se usar Hammer-on ou Slide)

D       C#m     D
Não imaginava sentir essa paixão
D             C#m                F#m
Só que eu te olhava com tanta indecisão
D                E         A        F#m
Acho que está na hora de crescer e assumir
D                       E                  A           F#m
Que o que eu sinto por você não é tão fácil de existir!
         D        E             A          F#m
Então eu viro a cabeça e deixo o orgulho de fora
        D                       E
E mais uma vez estou aqui a te ligar
            D        E            A        F#m
Confessa e pára de drama, deixa de ouvir as fofocas
      D               E            A
E percebe que o que incomoda é nós dois

(solo)

D              C#m      D
Sei que o povo fala, tentando separar nós dois
D              C#m        F#m
Mas não vou deixar que você deixe a gente pra depois
D                E        A        F#m
Acho que está na hora de crescer e assumir
D         E                A          F#m
Que o que eu sinto por você não é tão fácil de existir
        D               E                        A       F#m
Então vira sua cabeça e deixa o orgulho de fora
        D                           E
E mais uma vez estou aqui pra te atender
            D        E            A       F#m
Confessa e para de drama, deixa de ouvir as fofocas
      D                 E         A
E percebe que o que incomoda é nós dois.

         D        E             A       F#m
Então eu viro a cabeça e deixo o orgulho de fora
        D                     E
E mais uma vez estou aqui a te ligar
            D        E            A       F#m
Confessa e para de drama, deixa de ouvir as fofocas
      D                E                A
E percebe que o que incomoda é nós dois
      D                E                A
E percebe que o que incomoda é nós dois
      D                E                A
E percebe que o que incomoda é nós dois

(solo)
Composição: Maria CecíliaColaboração e revisão: Mateus S.Isabelacarlos vieirabruno zanchetta