busca

Quem Ama Cuida

Maria Cecília e Rodolfo

Tom: G
(intro)  ( D  A/C#  Em  Em/D  A  A4  A )

(verso 1)
     D
Não ligue se eu lhe perguntar
                A
Nem vá se estressar se eu quiser saber
     Bm
Com quem e aonde você tá
                F#m
Que hora vai voltar, e o que vai fazer...
     G
Não tô pegando no seu pé
                       D
É que quando a gente quer a gente vai à luta
             Em               G
Mas não desligue o celular, eu vou te rastrear
A                 D       A
Porque quem ama cuida

(verso 2)
D
Ei não é ciúme, eu confio em você
            A
E vou tá sempre onde você estiver
    Bm
E mesmo estando ausente, eu vou estar presente
      F#m
Toda hora que você quiser...
    G
Se me chamar eu vou e se for pra fazer amor
                 D
Eu largo tudo, tudo e vou à luta
           Em                 G
Mas não desligue o celular, eu vou te rastrear
A                D      A
Porque quem ama cuida...

                   D
Eu vou cuidar de você
                 A            Bm
Todo dia, toda hora, e todo momento
                   F#m                 G
Você jamais vai duvidar do meu sentimento
           Em               A
É de dar inveja amor assim

                    D
Eu vou cuidar de você
                A           Bm
Todo dia, toda hora, e todo momento
                 F#m               G
Eu sou capaz de ler até seu pensamento
        A                      D
Só pra saber se tá pensando em mim

(solo) D A Bm F#m G A D

(parte 1)
E|-------------------3/5-5-5-5-5-5-5/3-3-3-2---------------------------------------------|
B|--------3-2-3-5/7--5/7-7-7-7-7-7-7/5-5-5-3--1/3----------------2--3-2-0-2-3-5-7-7/8----|
G|-2-2-2--------------------------------------2/4-------------4--------------------------|
D|-------------------------------------------------------2/4-----------------------------|
A|---------------------------------------------------------------------------------------|
E|---------------------------------------------------------------------------------------|

(parte 2)
E|-------5-7--5h7p5/3-5---------|
B|--5/7-------------------------|
G|------------------------------|
D|------------------------------|
A|------------------------------|
E|------------------------------|

(verso 2)

(refrão 4x)

(solo - refrão)
E|--------------|--------------|------------|
B|----7----7-5--|--2/3----3-2--|--3/5--2-3--|
G|-/7----7------|-------4------|------------|

                                C 
"Só pra saber se tá pensando em mim..."
(final)
                     D
E|--8p7----------8/10--|
B|------8---8-10-------|
G|--------7------------|

Clipes

Cifra Club Pro

Aproveite o Cifra Club com benefícios exclusivos e sem anúncios
Cifra Club Pro
Aproveite o Cifra Club com benefícios exclusivos e sem anúncios