busca

Só de Pensar

Maria Cecília e Rodolfo

Tom: D
Intro: D G Bm A G

Solo da Introdução e primeira parte
E|-------------------------------------------------------|
B|-------------------------------------------------------|
G|---2-2--2-2---2-2--2-2---2-2--2-2---2-2--2-2---2-2--2-2|
D|--0-0--0-0---0-0--0-0---0-0--0-0---0-0--0-0---0-0--0-0-|
A|5----------5--------------------------------2----------|
E|----------------------3----------3---------------------|

E|----------------------------------|
B|----------------------------------|
G|---2-2--2-2---2-2--2-2---2-2--2-2-|
D|--0-0--0-0---0-0--0-0---0-0--0-0--|
A|0---------------------------------|
E|-----------3----------3-----------|

D                                     G
Seus cabelos envolvem O meu corpo, então
                                Bm
Fecho os olhos, estremece o coração
                   A             G
Quando sinto seu cheiro se espalhar em mim

D                                    G
Nem sei explicar como teu corpo me afeta
                               Bm
Te vejo dançando, meu sangue acelera
    G
Acelera

A                          G
E quando seu olhar me paralisa

Assim perco as palavras
            Bm
E assisto você me invadir
   G          A
Você me invadir

Refrão:
D                                  A
Eu suspiro e todo o meu corpo se abala
                                Bm
Os olhos não piscam, eu perco a fala
            G
Toca a sua boca em mim
      A
E me perco

D                         A
Quase fico louca e tenho medo
                           Bm
Só de pensar entro em desespero
          G A          D
Só de pensar em te perder

(Intro)

A                          G
E quando seu olhar me paralisa

Assim perco as palavras
            Bm
E assisto você me invadir
   G          A
Você me invadir

(Refrão)(2x)

(D A G D)

Clipes

Cifra Club Pro

Aproveite o Cifra Club com benefícios exclusivos e sem anúncios
Cifra Club Pro
Aproveite o Cifra Club com benefícios exclusivos e sem anúncios