busca

Tenho Tanto Amor

Maria Cecília e Rodolfo

Tom: D#
Intro: Eb  Bb  Cm  G#
Parte 1:                                 Parte 2:
E|--------------------------------------|--4-4--3-3--1-1-------|
B|--4-4-4-4-4-4/6----6-6-6-6-4-3--3/4---|----------------------|
G|--------------------------------------|----------------------|
D|--------------------------------------|----------------------|
A|--------------------------------------|----------------------|
E|--------------------------------------|----------------------|
Parte 3:                                 Parte 4:
E|--------------------------------------|--3-3/4---------------|
B|--4-4-4-4-4-4/6----6-6-6-6-4-3--3/4---|----------------------|
G|--------------------------------------|----------------------|
D|--------------------------------------|----------------------|
A|--------------------------------------|----------------------|
E|--------------------------------------|----------------------|

Eb             Bb                 Cm
Tenho tanto amor guardado no meu peito
  G#
Você não pode imaginar
Eb             Bb                 Cm
Queria te prender de qualquer jeito
     G#
Pra nunca mais me abandonar
Eb               Bb                 Cm
Será que você se lembra do primeiro beijo?
    G#
Foi quando tudo começou
Eb             Bb             Cm
Meu corpo queimava de tanto desejo
         G#            Bb
Quando a gente se abraçou

Fm                                Cm
Os dias vão passando e eu aqui sozinho
                               G#
Sem o seu abraço sem o seu carinho
                             Bb
Querendo um pouquinho de atenção
Fm                               Cm
Será que esse amor pra mim é proibido?
                                        G#
Estou morrendo aos poucos por sonhar contigo
                        Bb
O que falo pro meu coração?

Refrão 2x:
Eb            Bb         Cm
Tenho tanto amor pra te dar
      G#
Mas você não vem nao quer me amar
Eb            Bb         Cm
Tenho tanto amor pra te dar
      G#
Mas você não vem nao quer me amar

Intro: Eb  Bb  Cm  G#
Parte 1:                                 Parte 2:
E|--------------------------------------|--4-4--3-3--1-1-------|
B|--4-4-4-4-4-4/6----6-6-6-6-4-3--3/4---|----------------------|
G|--------------------------------------|----------------------|
D|--------------------------------------|----------------------|
A|--------------------------------------|----------------------|
E|--------------------------------------|----------------------|
Parte 3:                                 Parte 4:
E|--------------------------------------|--3-3/4---------------|
B|--4-4-4-4-4-4/6----6-6-6-6-4-3--3/4---|----------------------|
G|--------------------------------------|----------------------|
D|--------------------------------------|----------------------|
A|--------------------------------------|----------------------|
E|--------------------------------------|----------------------|

Fm                                Cm
Os dias vão passando e eu aqui sozinho
                               G#
Sem o seu abraço sem o seu carinho
                             Bb
Querendo um pouquinho de atenção
Fm                               Cm
Será que esse amor pra mim é proibido?
                                        G#
Estou morrendo aos poucos por sonhar contigo
                        Bb
O que falo pro meu coração?

(refrão 2x)
Eb            Bb         Cm
Tenho tanto amor pra te dar
      G#
Mas você não vem nao quer me amar
Eb            Bb         Cm
Tenho tanto amor pra te dar
      G#
Mas você não vem nao quer me amar

Intro: Eb  Bb  Cm  G#
       G  G#  G  G#
Parte 1:                                 Parte 2:
E|--------------------------------------|--4-4--3-3--1-1-------|
B|--4-4-4-4-4-4/6----6-6-6-6-4-3--3/4---|----------------------|
G|--------------------------------------|----------------------|
D|--------------------------------------|----------------------|
A|--------------------------------------|----------------------|
E|--------------------------------------|----------------------|
Parte 3:                                 Parte 4:
E|--------------------------------------|--3-3/4---------------|
B|--4-4-4-4-4-4/6----6-6-6-6-4-3--3/4---|----------------------|
G|--------------------------------------|----------------------|
D|--------------------------------------|----------------------|
A|--------------------------------------|----------------------|
E|--------------------------------------|----------------------|

Clipes

Cifra Club Pro

Aproveite o Cifra Club com benefícios exclusivos e sem anúncios
Cifra Club Pro
Aproveite o Cifra Club com benefícios exclusivos e sem anúncios