Tenho Tanto Amor

Maria Cecília e Rodolfo

Ab
234
431114
Bb
234
X13331
Cm
234
X35543
Eb
234
X65343
Fm
34
133111
G
123
320003
Tom: G
Intro: Eb  Bb  Cm  Ab
Parte 1:                                 Parte 2:
#1t1##1t2#E|--------------------------------------|--4-4--3-3--1-1-------|
B|--4-4-4-4-4-4/6----6-6-6-6-4-3--3/4---|----------------------|
G|--------------------------------------|----------------------|
D|--------------------------------------|----------------------|
A|--------------------------------------|----------------------|
E|--------------------------------------|----------------------|#/1t2##/1t1#
#2t1#Parte 3:                                 Parte 4:
#2t2#E|--------------------------------------|--3-3/4---------------|
B|--4-4-4-4-4-4/6----6-6-6-6-4-3--3/4---|----------------------|
G|--------------------------------------|----------------------|
D|--------------------------------------|----------------------|
A|--------------------------------------|----------------------|
E|--------------------------------------|----------------------|#/2t2##/2t1#

Eb             Bb                 Cm
Tenho tanto amor guardado no meu peito
  Ab
Você não pode imaginar
Eb             Bb                 Cm
Queria te prender de qualquer jeito
     Ab
Pra nunca mais me abandonar
Eb               Bb                 Cm
Será que você se lembra do primeiro beijo?
    Ab
Foi quando tudo começou
Eb             Bb             Cm
Meu corpo queimava de tanto desejo
         Ab            Bb
Quando a gente se abraçou

Fm                                Cm
Os dias vão passando e eu aqui sozinho
                               Ab
Sem o seu abraço sem o seu carinho
                             Bb
Querendo um pouquinho de atenção
Fm                               Cm
Será que esse amor pra mim é proibido?
                                        Ab
Estou morrendo aos poucos por sonhar contigo
                        Bb
O que falo pro meu coração?

Refrão 2x:
Eb            Bb         Cm
Tenho tanto amor pra te dar
      Ab
Mas você não vem nao quer me amar
Eb            Bb         Cm
Tenho tanto amor pra te dar
      Ab
Mas você não vem nao quer me amar

Intro: Eb  Bb  Cm  Ab
Parte 1:                                 Parte 2:
#3t1##3t2#E|--------------------------------------|--4-4--3-3--1-1-------|
B|--4-4-4-4-4-4/6----6-6-6-6-4-3--3/4---|----------------------|
G|--------------------------------------|----------------------|
D|--------------------------------------|----------------------|
A|--------------------------------------|----------------------|
E|--------------------------------------|----------------------|#/3t2##/3t1#
#4t1#Parte 3:                                 Parte 4:
#4t2#E|--------------------------------------|--3-3/4---------------|
B|--4-4-4-4-4-4/6----6-6-6-6-4-3--3/4---|----------------------|
G|--------------------------------------|----------------------|
D|--------------------------------------|----------------------|
A|--------------------------------------|----------------------|
E|--------------------------------------|----------------------|#/4t2##/4t1#

Fm                                Cm
Os dias vão passando e eu aqui sozinho
                               Ab
Sem o seu abraço sem o seu carinho
                             Bb
Querendo um pouquinho de atenção
Fm                               Cm
Será que esse amor pra mim é proibido?
                                        Ab
Estou morrendo aos poucos por sonhar contigo
                        Bb
O que falo pro meu coração?

(refrão 2x)
Eb            Bb         Cm
Tenho tanto amor pra te dar
      Ab
Mas você não vem nao quer me amar
Eb            Bb         Cm
Tenho tanto amor pra te dar
      Ab
Mas você não vem nao quer me amar

Intro: Eb  Bb  Cm  Ab
       G  Ab  G  Ab
Parte 1:                                 Parte 2:
#5t1##5t2#E|--------------------------------------|--4-4--3-3--1-1-------|
B|--4-4-4-4-4-4/6----6-6-6-6-4-3--3/4---|----------------------|
G|--------------------------------------|----------------------|
D|--------------------------------------|----------------------|
A|--------------------------------------|----------------------|
E|--------------------------------------|----------------------|#/5t2##/5t1#
#6t1#Parte 3:                                 Parte 4:
#6t2#E|--------------------------------------|--3-3/4---------------|
B|--4-4-4-4-4-4/6----6-6-6-6-4-3--3/4---|----------------------|
G|--------------------------------------|----------------------|
D|--------------------------------------|----------------------|
A|--------------------------------------|----------------------|
E|--------------------------------------|----------------------|#/6t2##/6t1#
Composição: TIAGO VIOLEIROColaboração e revisão: Dionatan_didi@hotmail.comLucca Santucci