busca

Tentativas Em Vão

Maria Cecília e Rodolfo

Tom: F
         F                                           Am
Se eu soubesse o que fazer pra tirar você da minha cabeça
     F                                               Am
Um lado diz que quer ficar com você e o outro diz: esqueça.. (2x)

         Dm                         Am
Mais acontece que o meu coração não é de papel
             Bb                   C
Que a chuva molha e as palavras apagam
          Dm             Am
A minha mente gira feito um carrossel
   Bb
Tentando buscar a saída
        C
Pra tirar você da minha vida

(refrão 2x)
               F
Tentativas em vão
                          Dm
Tentar tirar você do coração
                             Bb
Igual querer viver sem respirar
                             C
É como querer apagar a chama de um vulcão

solo) F Dm Bb C

E|-------------------------------
B|-------6-5-6~--6-8-6-8-6-5-6-6-
G|-5-5-5-------------------------
D|-------------------------------
A|-------------------------------
E|-------------------------------

E|-------------------------------
B|---6-8-6-8-6-5-6-6~------------
G|-------------------------------
D|-------------------------------
A|-------------------------------
E|-------------------------------

E|-------------------------------
B|--------------5-6-6--5~--------
G|--5--7-7-7-7-------------------
D|-------------------------------
A|-------------------------------
E|-------------------------------

         F                                           Am
Se eu soubesse o que fazer pra tirar você da minha cabeça
     F                                               Am
Um lado diz que quer ficar com você e o outro diz: esqueça..
         Dm                         Am
Mais acontece que o meu coração não é de papel
             Bb                   C
Que a chuva molha e as palavras apagam
          Dm             Am
A minha mente gira feito um carrossel
   Bb
Tentando buscar a saída
        C
Pra tirar você da minha vida

(refrão 2x)

(solo)

Clipes

Cifra Club Pro

Aproveite o Cifra Club com benefícios exclusivos e sem anúncios
Cifra Club Pro
Aproveite o Cifra Club com benefícios exclusivos e sem anúncios