busca

Três Palavras

Maria Cecília e Rodolfo

Tom: B
Intro: B  F#  G#m  E
E|------------------------------------------|
B|-4h7-4---2-----4h7-4---5p4-5p4-5p4-2------|
G|-------4---4-3-------4---------------4----|
D|------------------------------------------|
A|------------------------------------------|
E|------------------------------------------|

B                                       G#m
A sua ausência foi uma escola onde  eu aprendi

Que sem você
                                E
Eu posso qualquer coisa menos ser feliz
                C#m
Não canso de te esperar
    E                        F#
Minha esperança diz que vai voltar

B
Se eu faço uma canção
                G#m
Você é quem me inspira

Se tento uma nova paixão
                 E
Meu coração se irrita
               C#m
Diz que devo esperar
   E                       F#
A vida inteira assim se precisar

Refrão 2x:
B              F#
Tive que te perder
                G#m
Tive que ficar só

Pra poder entender
      E               B
Que sem você ta bem pior
                F#
Que sinto por você
                   G#m
Resume em três palavras
        E
Amor, Amor, Amor
        B
E mais nada
Solo:
E|------------------------------------------|
B|-4h7-4---2-----4h7-4---5h4-5h4-5h4-2------|
G|-------4---4-3-------4---------------4----|
D|------------------------------------------|
A|------------------------------------------|
E|------------------------------------------|

(Repete Tudo)

Clipes

Cifra Club Pro

Aproveite o Cifra Club com benefícios exclusivos e sem anúncios
Cifra Club Pro
Aproveite o Cifra Club com benefícios exclusivos e sem anúncios