busca

Alô Porteiro

Marília Mendonça

Tom: D
[Primeira Parte]

D9                               A9
  Pegue suas coisas que estão aqui
G
  Nesse apartamento 
         D9         A9
Você não entra mais
D9                                 A9
  Olha o que me fez você foi me trair
G                                  D9
  Agora arrependido quer voltar atrás

[Segunda Parte]

    G
Já deu
                                 Bm
Cansei das suas mentiras mal contadas
                                       
Cresci 
                               Em
Não acredito mais em conto de fadas
       G                  A9
Não adianta vir com baixarias

 D/F#  G
Mor___reu
                                   Bm
A mulher carinhosa e fiel que te amava
                        A9      G
Pega o elevador, a sua mala e  vaza
       Em               A9
To avisando lá na portaria
       Em         A9
Que aqui você não entra mais

[Refrão]

        D9
Alô porteiro
                      A9
Tô ligando pra te avisar
                                Em
Que a partir de agora eu tô solteira
                       G
Já me cansei da brincadeira
         Em                 A9  G
Chame o táxi que ele vai pagar

  A9    D9
Alô porteiro
                      A9
Tô ligando pra te avisar
                     Em
Esse homem que está aí
              D/F#   G
Ele não pode mais subir
        A9
Tá proibido de entrar

[Solo] D9  A9  Em  D/F#  G
 
E|-------5---2-5-5/7-5\-2------------------------------|
B|-----3------------------3----------------------------|
G|---2-------------------------------------------------|
D|-0---------------------------------------------------|
A|-----------------------------------------------------|
E|-----------------------------------------------------|
  
E|-------5---2-5---7\--5\--3\--2--3--------------------|
B|-----2-----------8\--7\--5\--3--5--------------------|
G|---2-------------------------------------------------|
D|-----------------------------------------------------|
A|-0---------------------------------------------------|
E|-----------------------------------------------------|

E|-3-5| —5p3-2------------------------5/7----------------|
B|------------5-3--5h7p5--3-------3--------------------|
G|---------------------------2h4-----------------------|
D|-----------------------------------------------------|
A|-----------------------------------------------------|
E|-----------------------------------------------------|

[Segunda Parte]

 D/F#  G
Já    deu
                                 Bm
Cansei das suas mentiras mal contadas
                                       
Cresci 
                               Em
Não acredito mais em conto de fadas
       G                  A9
Não adianta vir com baixarias

 D/F#   G
Mor____reu
                                   Bm
A mulher carinhosa e fiel que te amava
                        A9     G
Pega o elevador, a sua mala e vaza
       Em               A9
To avisando lá na portaria
       Em         A9
Que aqui você não entra mais

[Refrão]

        D9
Alô porteiro
                      A9
Tô ligando pra te avisar
                                Em
Que a partir de agora eu tô solteira
                       G
Já me cansei da brincadeira
         Em                 A9  G
Chame o táxi que ele vai pagar

  A9    D9
Alô porteiro
                      A9
Tô ligando pra te avisar
                     Em
Esse homem que está aí
              D/F#   G
Ele não pode mais subir
        A9         D5
Tá proibido de entrar

[Final]

E|-------5-------5/7-5---------------------------------|
B|-----3-----------------------------------------------|
G|---2-------------------------------------------------|
D|-0---------------------------------------------------|
A|-----------------------------------------------------|
E|-----------------------------------------------------|

Clipes