De Quem É a Culpa?

Marília Mendonça

Am
123
X02210
Am7
12
X02010
C
123
X32010
D
123
XX0232
D/F#
1234
2X0232
D5
134
X577XX
Em
12
022000
G
123
320003
G/B
123
X20033
Tom: G
[Intro] G  D5  Am7  C

#1t1#        G
#1t2#E|------3--3-3-3-3-3-3-3-3-3--3/5-----|
B|------3-----------------------------|
G|------0-----------------------------|
D|------0-----------------------------|
A|------2-----------------------------|
E|-0-2--3-----------------------------|#/1t2##/1t1#

#2t1#   D5
#2t2#E|-5---2-2-2-2-2-2-2-2p0--------------|
B|-3----------------------------------|
G|-2----------------------------------|
D|-0----------------------------------|
A|------------------------------------|
E|------------------------------------|#/2t2##/2t1#

#3t1#   Am7                C
#3t2#E|-3---p0-----------------------------|
B|---1-----0h1p0------1---------------|
G|---0-----0-----2-0--0---------------|
D|---2-----2----------0h2-------------|
A|---0-----0----------3---------------|
E|------------------------------------|#/3t2##/3t1#

[Primeira Parte]

Em         D/F# G
   Exagerado   sim
                  Am
Sou mais você que eu
           G/B  C
Sobrevivo de olhares
                         Em
E alguns abraços que me deu
                 D/F# G
E o que vai ser de   mim
                 Am
E o meu assunto não muda
              G/B  C
Minha cabeça não ajuda, loucura

[Segunda Parte]

(Passagem)

#4t1#   C
#4t2#E|------------------------------------|
B|-0h1p0------------------------------|
G|-0-----2-0--------------------------|
D|-2----------------------------------|
A|-0----------------------------------|
E|------------------------------------|#/4t2##/4t1#

    Em
Tortura
                          D
E que se dane a minha postura
                      Am
Se eu mudei você não viu
                           C
Eu só queria ter você por perto
            Em
Mas você sumiu
                               D
É tipo vício que não tem mais cura
                     Am
E agora de quem é a culpa
           C
A culpa é sua por ter esse sorriso
Am                                 C
  Ou a culpa é minha por me apaixonar

Por ele

Só isso

[Refrão]

G
  Não finja que eu não to falando
       D
Com você
                         Am
Eu tô parado no meio da rua
                            C
Eu tô entrando no meio dos carros
                          G
Sem você a vida não continua

Não finja que eu não to falando
       D
Com você
                                Am
Ninguém entende o que eu tô passando
                           G/B  C
Quem é você que eu não conheço mais
                               G
Me apaixonei pelo que eu inventei

De você

( G  D5  Am7  C )

[Segunda Parte]

            Em
Mas você sumiu
                               D
É tipo vício que não tem mais cura
                     Am
E agora de quem é a culpa
           C
A culpa é sua por ter esse sorriso
Am                                 C
  Ou a culpa é minha por me apaixonar

Por ele
        
Só isso

[Refrão]

G
  Não finja que eu não to falando
       D
Com você
                         Am
Eu tô parado no meio da rua
                            C
Eu tô entrando no meio dos carros
                          G
Sem você a vida não continua

Não finja que eu não to falando
       D
Com você
                                Am
Ninguém entende o que eu tô passando
                           G/B  C
Quem é você que eu não conheço mais
                               G
Me apaixonei pelo que eu inventei

De você

( D5  Am7 )

     C
Me apaixonei pelo que eu inventei
        G
De você
Composição: Juliano Tchula / Marília MendonçaColaboração e revisão: Getúlio VasconcelosJonas CunhaGustavo CunhaHenrique Assise mais 8
Videoaula De Quem É a Culpa? (aula de violão completa)