busca

Entre Quatro Paredes

Marília Mendonça

Tom: G
[Intro] G  C9  G

E|---/12--8-8-----7h8p7----3/5-3~---------------------|
B|-1------8-8-----------------------------------------|
G|--------------7-------------------------------------|
D|----------------------------------------------------|
A|----------------------------------------------------|
E|----------------------------------------------------|

[Primeira Parte]

 G
Sabe               
                    C9
Nosso problema é igualdade
                 Em7                             D9
Já estamos conscientes que por mais que a gente tente
                        C9
Não dá certo, mas quem sabe o certo é assim

[Segunda Parte]

 G                          C9
Lembra de como tudo era perfeito
                    Em7
Mas assim é todo começo
                      D9
A gente esconde os defeitos
             C9
Até se conhecer melhor

[Pré-Refrão]

    Am7                 C9
O que esse amor tem de tão diferente
      G                  D9
Que prende a gente, ninguém abre mão
Am7       C9                 D9
    E reatamos nossa ex relação

[Refrão]

                   C9
A gente se dá tão bem
                D9
Entre quatro paredes
                Em7
Que pouco me importa

Do quarto pra fora
      C9        D9         Em7
Eu e você, sem regra, sem lógica

                   C9
A gente se dá tão bem
                D9
Entre quatro paredes
                Em7
Que pouco me importa

Do quarto pra fora
      C9        D9         Em7
Eu e você, sem regra, sem lógica

[Solo] C9  D9  Em7 
       C9  D9  Em7 


E|----------------------------------------------------|
B|-/8-8-8-8p7-------------7-8-10-8-7---------8/12-----|
G|------------9-----9-9-9-------------9-7-7-----------|
D|--------------10------------------------------------|
A|----------------------------------------------------|
E|----------------------------------------------------|


E|---10--10/8----8/7--7/5--5/7------------------------|
B|---12--12/10--10/8--8/7--7/8--8h10-8h10p8-7---------|
G|---0----------------------------------------9p7-9---|
D|----------------------------------------------------|
A|----------------------------------------------------|
E|----------------------------------------------------|

[Pré-Refrão]

    Am7                 C9
O que esse amor tem de tão diferente
      G                  D9
Que prende a gente, ninguém abre mão
Am7       C9                 D9
    E reatamos nossa ex relação

[Refrão]

                   C9
A gente se dá tão bem
                D9
Entre quatro paredes
                Em7
Que pouco me importa

Do quarto pra fora
      C9        D9         Em7
Eu e você, sem regra, sem lógica

                   C9
A gente se dá tão bem
                D9
Entre quatro paredes
                Em7
Que pouco me importa

Do quarto pra fora
      C9        D9         Em7
Eu e você, sem regra, sem lógica

                   C9
A gente se dá tão bem
                D9
Entre quatro paredes
                Em7
Que pouco me importa

Do quarto pra fora
      C9        D9         Em7
Eu e você, sem regra, sem lógica

                   C9
A gente se dá tão bem
                D9
Entre quatro paredes
                Em7
Que pouco me importa

Do quarto pra fora
      C9        D9         Em7
Eu e você, sem regra, sem lógica

Clipes