Eu Sei De Cor

Marília Mendonça

A
123
X02220
A9
12
X02200
B7
1234
X21202
C#m
234
X46654
D
123
XX0232
E
123
022100
F#m
34
244222
Tom: G
[Intro] A9  E  F#m  D 

[Intro]
 
#1t1#Parte 1 de 3
#1t2#E|-----5--5-5\4-4\2-2p0-0-2-2/4-----------------------|
B|----------------------------------------------------|
G|-4/6----6-6\4-4\2-2p1-1-2-2/4-----------------------|
D|----------------------------------------------------|
A|----------------------------------------------------|
E|----------------------------------------------------|#/1t2##/1t1#

#2t1#Parte 2 de 3
#2t2#E|--5\4-4\2-2p0---0-0h2-------------------------------|
B|--------------2-------2-----------------------------|
G|--6\4-4\2-2p1---1-1h2-------------------------------|
D|--------------2-------2-----------------------------|
A|----------------------------------------------------|
E|----------------------------------------------------|#/2t2##/2t1#

#3t1#Parte 3 de 3
#3t2#E|---0-0h2p0---0-0h2p0--------------------------------|
B|-2---------2---------3\2--------7-------------------|
G|---1-1h2p1---1-1h2p1-----2--------------------------|
D|-2---------2---------4\2-0--4/7---------------------|
A|----------------------------------------------------|
E|----------------------------------------------------|#/3t2##/3t1#

[Primeira Parte]

A9
É
                      C#m
Já tá ficando chato, né
                         F#m
A encheção de saco, pois é
                               D
Prepara, que eu já tô me preparando

Enquanto cê tá indo

          A9
Eu to voltando
                               E
E todo esse caminho eu sei de cor

Se eu não me engano
                     F#m
Agora vai me deixar só
                              D
O segundo passo é não me atender
                        B7
O terceiro é se arrepender
                                 E
Se o que dói em mim doesse em você

[Refrão]

#4t1#   A9  E  F#m  D 
#4t2#E|-4/5-4--2----0--------------------------------------|
B|----------------------------------------------------|
G|-5/6-4--2----1--------------------------------------|
D|----------------------------------------------------|
A|----------------------------------------------------|
E|----------------------------------------------------|#/4t2##/4t1#

 A9   
Deixa
                         E
Deixa mesmo de ser importante
                                F#m
Vai deixando a gente pra outra hora
                                 D
Vai tentar abrir a porta desse amor

Quando eu tiver jogado a chave fora

 A9   
Deixa
                         E
Deixa mesmo de ser importante
                                F#m
Vai deixando a gente pra outra hora
                              D
E quando se der conta, já passou
          E 
Quando olhar pra trás, já fui embora

[Solo]

#5t1#Parte 1 de 3
#5t2#E|-----5--5-5\4-4\2-2p0-0-2-2/4-----------------------|
B|----------------------------------------------------|
G|-4/6----6-6\4-4\2-2p1-1-2-2/4-----------------------|
D|----------------------------------------------------|
A|----------------------------------------------------|
E|----------------------------------------------------|#/5t2##/5t1#

#6t1#Parte 2 de 3
#6t2#E|--5\4-4\2-2p0---0-0h2-------------------------------|
B|--------------2-------2-----------------------------|
G|--6\4-4\2-2p1---1-1h2-------------------------------|
D|--------------2-------2-----------------------------|
A|----------------------------------------------------|
E|----------------------------------------------------|#/6t2##/6t1#

#7t1#Parte 3 de 3
#7t2#E|---0-0h2p0---0-0h2p0------------5-------------------|
B|-2---------2---------3\2----------------------------|
G|---1-1h2p1---1-1h2p1-----2--4/6---------------------|
D|-2---------2---------4\2-0--------------------------|
A|----------------------------------------------------|
E|----------------------------------------------------|#/7t2##/7t1#

[Primeira Parte]

A9                                E
   E todo esse caminho eu sei de cor

Se eu não me engano
                     F#m
Agora vai me deixar só
                              D
O segundo passo é não me atender
                        B7
O terceiro é se arrepender
                                 E
Se o que dói em mim doesse em você

[Refrão]

 A9  
Deixa
                         E
Deixa mesmo de ser importante
                                F#m
Vai deixando a gente pra outra hora
                                 D
Vai tentar abrir a porta desse amor

Quando eu tiver jogado a chave fora

 A9   
Deixa
                         E
Deixa mesmo de ser importante
                                F#m
Vai deixando a gente pra outra hora
                              D
E quando se der conta, já passou
          E 
Quando olhar pra trás, já fui embora

[Base Solo Final] A9  E  F#m

                              D
E quando se der conta, já passou
          E                      A
Quando olhar pra trás, já fui embora

[Solo Final]

#8t1#Parte 1 de 2
#8t2#E|-----5--5-5\4-4\2-2p0-0-2-2/4-----------------------|
B|----------------------------------------------------|
G|-4/6----6-6\4-4\2-2p1-1-2-2/4-----------------------|
D|----------------------------------------------------|
A|----------------------------------------------------|
E|----------------------------------------------------|#/8t2##/8t1#

#9t1#Parte 2 de 2
#9t2#E|--5\4-4\2-2p0---0-0h2-------------------------------|
B|--------------2-------2-----------------------------|
G|--6\4-4\2-2p1---1-1h2-------------------------------|
D|--------------2-------2-----------------------------|
A|----------------------------------------------------|
E|----------------------------------------------------|#/9t2##/9t1#
Composição: Danillo Dávilla / Elcio Di Carvalho / Junior Pepato / LARI FERREIRAColaboração e revisão: Raffael UascarGabriel SilvaLeandro Sandimgabriella nevese mais 8
Videoaula Eu Sei de Cor (aula de violão completa)