/ /Riff/ / / Não tem mais pra onde correr / Voc" /> / /Riff/ / / Não tem mais pra onde correr / Voc">
busca

Quer Mesmo Jogar

Marília Mendonça

Tom: D
[Intro]

E|----2---------------------2---------------------|
B|----3---2h3-3-2-----------3---2h3-5-3-2---------|
G|----4----------4-2-2------4-------------2-2-----|
D|----4------------2-2------4-------------2-2-----|
A|----2--2------------------2---------------------|
E|------------------------------------------------|

Riff
E|--------------------------|
B|----5--3--2--3------------|
G|----------------4---------|
D|--------------------------|
A|--------------------------|
E|--------------------------|

Bm
Não tem mais pra onde correr
                  G
Você vai se esconder e se encontrar em mim
      D
Seus olhos não tem mais destino
                A
São barcos sem rumo distantes assim
Bm (riff)                                 G
Você aprendeu a jogar mas esqueceu que o coração não é brinquedo
D                                    A
Sua estratégia, seu plano infalível nunca me deixaram com medo

Em
Você sempre dificultando os meios 
               Bm
Pra chegar de vez no fundo desse coração
Em                                Bm                    A       G
E eu fantasiando o futuro do seu lado sem pedir a sua opnião

D         A            Em
Será que quer mesmo jogar?
      G         D
Não vai se enganar
          A         Em     G A
Não sou mulher de perdoar

D           A           Em
Eu sei, sou tudo pra você
    G           D
Vai se surpreender
       A         Em
Quando rolar na cama
  G          A           Bm
E não conseguir me esquecer

E|----2---------------------2---------------------|
B|----3---2h3-3-2-----------3---2h3-5-3-2---------|
G|----4----------4-2-2------4-------------2-2-----|
D|----4------------2-2------4-------------2-2-----|
A|----2--2------------------2---------------------|
E|------------------------------------------------|

Bm
Não tem mais pra onde correr
                  G
Você vai se esconder e se encontrar em mim
      D
Seus olhos não tem mais destino
                A
São barcos sem rumo distantes assim
Bm (Riff)                                  G
Você aprendeu a jogar mas esqueceu que o coração não é brinquedo
D                                    A
Sua estratégia, seu plano infalível nunca me deixaram com medo

Em
Você sempre dificultando os meios 
               Bm
Pra chegar de vez no fundo desse coração
Em                                Bm                    A       G
E eu fantasiando o futuro do seu lado sem pedir a sua opnião

D         A            Em
Será que quer mesmo jogar?
      G         D
Não vai se enganar
          A         Em     G A
Não sou mulher de perdoar

D           A           Em
Eu sei, sou tudo pra você
    G           D
Vai se surpreender
       A         Em
Quando rolar na cama
  G          A           D   G A
E não conseguir me esquecer

D         A            Em
Será que quer mesmo jogar?
      G         D
Não vai se enganar
          A         Em     G A
Não sou mulher de perdoar

D           A           Em
Eu sei, sou tudo pra você
    G           D
Vai se surpreender
       A         Em
Quando rolar na cama
  G          A           D
E não conseguir me esquecer

G          A           D
Não conseguir me esquecer

Clipes