busca

Todo Mundo Vai Sofrer

Marília Mendonça

Tom: Db (forma dos acordes no tom de C) Capotraste na 1ª casa
[Intro]

   D              A
E|-----x------x-----------------------------|
B|-----x-3----x-----------------------------|
G|---2-x-2----x---2-------------------------|
D|-0---x-0--0-x---2-------------------------|
A|-----x------x---0-------------------------|
E|-----x------x-----------------------------|

[Primeira Parte]

      D
A garrafa precisa do copo
   A
O copo precisa da mesa
   Em7
A mesa precisa de mim
  G
E eu preciso da cerveja

[Primeira Parte - Primeira Estrofe]

Parte 1 de 2

   D5             A
E|-----x-----x--------x-----x---------------|
B|-----x-3---x--------x-2---x---------------|
G|---2-x-2-2-x--------x-2---x---------------|
D|-0---x-0---x-0----2-x-2-2-x-0-------------|
A|-----x-----x----0---x-0---x---------------|
E|-----x-----x--------x-----x---------------|

Parte 2 de 2

   Em7          G
E|------------------------------------------|
B|------------------------------------------|
G|-------0----------------------------------|
D|-----0---0--------------------------------|
A|---2--------------------------------------|
E|-0---------0--3---------------------------|

[Primeira Parte - Segunda Estrofe]

                  D             A9
Igual eu preciso dele na minha vida
            Em7
Mas quanto mais eu vou atrás
          G
Mais ele pisa
                  D
Então já que é assim
                         A9
Se por ele eu sofro sem pausa
                 Em7
Quem quiser me amar
 G      D/F#   Em7    D    A9
Também vai sofrer nessa bagaça

[Refrão]

         D
Quem eu quero, não me quer
         A9
Quem me quer, não vou querer
         Em7
Ninguém vai sofrer sozinho
      G
Todo mundo vai sofrer

         D
Quem eu quero, não me quer
         A9
Quem me quer, não vou querer
         Em7
Ninguém vai sofrer sozinho
G                    
  Todo mundo vai sofrer

(D  A9  Em7  G  D  A9)

[Solo]

Parte 1 de 2

E|-----------------------------------------------------|
B|-3/4-4-4---4-6/11-8~--6-6-6---6-6/11-8~--------------|
G|---------3------------------3------------------------|
D|-----------------------------------------------------|
A|-----------------------------------------------------|
E|-----------------------------------------------------|

Parte 2 de 2

E|-----------------------------------------------------|
B|-3/4-4-4---4-6/11-8~--6~-----------------------------|
G|---------3-------------------------------------------|
D|-----------------------------------------------------|
A|-----------------------------------------------------|
E|-----------------------------------------------------|

[Primeira Parte - Segunda Estrofe]

                  D             A9
Igual eu preciso dele na minha vida
            Em7
Mas quanto mais eu vou atrás
          G
Mais ele pisa
                  D
Então já que é assim
                         A9
Se por ele eu sofro sem pausa
                 Em7
Quem quiser me amar
 G      D/F#   Em7    D    A9
Também vai sofrer nessa bagaça

[Refrão Final]

         D
Quem eu quero, não me quer
         A9
Quem me quer, não vou querer
         Em7
Ninguém vai sofrer sozinho
      G
Todo mundo vai sofrer

         D
Quem eu quero, não me quer
         A9
Quem me quer, não vou querer
         Em7
Ninguém vai sofrer sozinho
G                    D  A9
  Todo mundo vai sofrer

         D
Quem eu quero, não me quer
         A9
Quem me quer, não vou querer
         Em7
Ninguém vai sofrer sozinho
      G
Todo mundo vai sofrer

         D
Quem eu quero, não me quer
         A9
Quem me quer, não vou querer
         Em7
Ninguém vai sofrer sozinho
G                    D  A9
  Todo mundo vai sofrer 
         Em7               G
Ninguém vai sofrer sozinho
D  A9           Em7
       Ninguém vai sofrer sozinho
G                    D
  Todo mundo vai sofrer

Clipes

Cifra Club Pro

Aproveite o Cifra Club com benefícios exclusivos e sem anúncios
7 dias grátis
Cifra Club Pro
Aproveite o Cifra Club com benefícios exclusivos e sem anúncios
7 dias grátis