Tentei Te Esquecer

Matogrosso & Mathias

A
123
X02220
B
234
X24442
C#m
234
X46654
E
123
022100
F#
234
244322
G#m
34
466444
Tom: G
[Intro] B  E  F#

[Solo 1]

#1t1##1t2#E|--------------------------------------------|
B|--------------------------------------------|
G|-------4-6-6/8~-9p8-4-----------------------|
D|------4---------------4/6-4-----------------|
A|--------------------------------------------|
E|--------------------------------------------|#/1t2##/1t1#

#2t1##2t2#E|--------------------------------------------|
B|-----------4-5-5/7~--7/5-4-5-7-7/9----------|
G|-------4-6-------------------------6~-------|
D|------4-------------------------------------|
A|--------------------------------------------|
E|--------------------------------------------|#/2t2##/2t1#

[Primeira Parte]

            B             E       F#
Ah! Como  quero te encontrar novamente
       B          E         F#
Estou sozinho procurando você
           B           E        F#
Ah! Como quero te abraçar loucamente
       C#m            A          F#                  B  E  F#
Olhar dentro dos teus olhos e dizer "não vivo sem você"

[Segunda Parte]

         B           E         F#
O tempo passa cai à noite e o dia vem
          B            E           F#
Tento fingir, mas não dá pra esconder
           B              E              F#
Ah! Eu sonhei nas noites vagas com teu amor
            G#m                F#
Provei teu beijo magoei minha dor

[Refrão]

              B    E      F#
Tentei te esquecer   não deu
            B          E               F#
Pensei que fosse mais forte que esse amor
            B  E      F#
Ó minha paixão   sou teu
                  B           E          F#
Por mais que eu queira disfarçar como estou
           G#m          F#   E    
O meu coração se nega a aceitar
         C#m             F#          B
Passa o tempo eu não esqueço de te amar

[Solo] B  E  F#
       B  E  F#

#3t1##3t2#E|-------------------------------------------|
B|-------------------------------------------|
G|-6b8---------------4-6/8-6~---3h4-4/6------|
D|-----4--------4-6--------------------4-----|
A|----------4-6------------------------------|
E|-------------------------------------------|#/3t2##/3t1#

#4t1##4t2#E|-------------------------------------------|
B|------4-5-5/7~--2h4/5-7-7/9-7~-------------|
G|------4-6------------------------3h4/6-----|
D|-4---------------------------------4~-/0---|
A|-------------------------------------------|
E|-------------------------------------------|#/4t2##/4t1#

[Segunda Parte]

         B           E         F#
O tempo passa cai à noite e o dia vem
          B            E           F#
Tento fingir, mas não dá pra esconder
           B              E              F#
Ah! Eu sonhei nas noites vagas com teu amor
            G#m                F#
Provei teu beijo magoei minha dor

[Refrão]

              B    E      F#
Tentei te esquecer   não deu
            B          E               F#
Pensei que fosse mais forte que esse amor
            B  E      F#
Ó minha paixão   sou teu
                  B           E          F#
Por mais que eu queira disfarçar como estou
           G#m          F#   E    
O meu coração se nega a aceitar
         C#m             F#          B
Passa o tempo eu não esqueço de te amar

[Refrão]

              B    E      F#
Tentei te esquecer   não deu
            B          E               F#
Pensei que fosse mais forte que esse amor
            B  E      F#
Ó minha paixão   sou teu
                  B           E          F#
Por mais que eu queira disfarçar como estou
           G#m          F#   E    
O meu coração se nega a aceitar
         C#m             F#          B
Passa o tempo eu não esqueço de te amar

( B  E  F# )

[Final]

#5t1#                                   B
#5t2#E|---------------------------------2--------|
B|---------------------------------4--------|
G|-------4-6----6/8~---------------4--------|
D|------4--------------------------4--------|
A|---------------------------------2--------|
E|---------------------------------2--------|#/5t2##/5t1#
Composição: Cruz GagoColaboração e revisão: Gabriel SilvaRicardo MarquesVinicius BaioLucas Oliveirae mais 18