busca

Meu Abrigo

Melim

[Intro]

G|------|------|------|--------------|
D|------|------|------|--------3-/6--|
A|------|--3---|------|--4---6-------|
E|--4---|------|--1---|--------------|

G|-------------|-------5---------|
D|-------------|-----5---5---5---|
A|-------------|-3---------3---6-|
E|--4----4-4-6-|-----------------|

G|------------10-------|-------------|
D|---------10----10----|------6------|
A|----/8------------8--|--4-4---4----|
E|--1------------------|-------------|

[Refrão]

G|-----------------|-------------------|
D|----------6---6--|-------------------|
A|--4---4-6---4----|------4/6---4h6--6-|
E|-----------------|--1----------------|

G|-----------------|-------------------|
D|----------6--5h6-|--3--3-------------|
A|--4---4-6--------|-------6-----------|
E|-----------------|-------------------|

G|-----------------|--------------------|
D|----------6--5h6-|--3--3--------------|
A|--4---4-6--------|-------6---4h6--4h6-|
E|-----------------|--------------------|

G|-----------|---------|
D|-----------|---------|
A|--4-x-4-x--|--6-6-6--|
E|-----------|---------|

(variação da Intro)

G|-------------------5-----|------------------|
D|-----------------5---5---|-------10-10-8----|
A|--------------3--------3-|-/8------------11-|
E|--4---4-4-4-6------------|-----8------------|

G|----------------|
D|----------------|
A|------/8-8-8-8--|
E|--1-------------|

[Parte 2]

G|--------------|-----------------|
D|--------------|-----------------|
A|--------------|-8---8-6h8-6h8-6-|
E|--6---6-6-6-8-|-----------------|

G|---------------------|-----------8---|
D|--5---5--------------|-------8-------|
A|---------------------|-6---6---6---6-|
E|--------3-3-3---3/-6-|---------------|

G|------------|-------------|
D|------------|-------------|
A|------------|--8---8-8-8--|
E|--6---6-6-6-|-------------|

G|-------------------|-------------|
D|-------------------|-------------|
A|-------------------|-6-6--5h6-6--|
E|--3---3-3-3---3-/6-|-------------|

[Pré-refrão]

G|---------------|--------------------|
D|--5---5-5-8-10-|----------8-10------|
A|---------------|-8---8--8--------8--|
E|---------------|--------------------|

G|-------------|-----------------|
D|-------------|-----------------|
A|--6---6-6-8--|-------------5-8-|
E|-------------|-6---6-6-8-6-----|

G|--------------|--------------|
D|--5--8-----8--|--------------|
A|--------6-----|--8---8-6-8---|
E|--------------|--------------|

G|---------------|------------|
D|---------------|------------|
A|--6---6-5-6-6--|--8-8-8-8-8-|
E|---------------|------------|

[Refrão]

G|-----------------|-------------------|
D|----------8---8--|-------------------|
A|--6---6-8---6----|------6/8---6h8--8-|
E|-----------------|--3----------------|

G|-----------------|-------------------|
D|----------8--7h8-|--5--5-------------|
A|--6---6-8--------|-------8-----------|
E|-----------------|-------------------|

G|-----------------|-------------------|
D|----------8--7h8-|--5--5-------------|
A|--6---6-8--------|-------8--6h8--6h8-|
E|-----------------|-------------------|

G|-----------|---------|
D|-----------|---------|
A|--6-x-6-x--|--8-8-8--|
E|-----------|---------|

[Transição]

G|--------------|---------7-----|
D|--------------|-------7---7---|
A|--------------|-5---5-------5-|
E|--6---6-6-6-8-|---------------|

G|--------------------|-------------------|
D|--------12-12-10----|-------------------|
A|-/10-------------13-|-\6---6-6-6---6-8--|
E|-----10-------------|-------------------|

G|--------------|---------7-----|
D|--------------|-------7---7---|
A|--------------|-5---5-------5-|
E|--6---6-6-6-8-|---------------|

G|--------------------|-------------|----------|
D|--------12-12-10----|-------------|----------|
A|-/10-------------13-|-\6---6-6-6--|----------|
E|-----10-------------|-------------|--8-8-8-8-|

[Parte 3]

G|--------------------|---------------------|
D|-----------10---10--|---------------------|
A|--8---8-10----8-----|------8/1---8h10--10-|
E|--------------------|--5------------------|

G|--------------------|-------------------|
D|-----------10--9h10-|--7--7-------------|
A|--8---8-10----------|-------10----------|
E|--------------------|-------------------|

G|--------------------|----------------------|
D|-----------10--9h10-|--7--7----------------|
A|--8---8-10----------|-------10--8h10--8h10-|
E|--------------------|----------------------|

G|-----------|------------|
D|-----------|------------|
A|--8-x-8-x--|--10-10-10--|
E|-----------|------------|

[Transição]

G|---------------|---------9-----|
D|---------------|-------9---9---|
A|---------------|-7---7-------7-|
E|--8---8-8-8-10-|---------------|

G|--------------------|-------------------|
D|--------14-14-12----|-------------------|
A|-/12-------------15-|-\8---8-8-8---8-10-|
E|-----12-------------|-------------------|

Clipes