busca

Sabe lá

Melim

Tom: A
[Intro]

[Parte 1 de 2]

E|---------------------12/10-9-10-9-----------10-9--------------|
B|-9h10-12---9h10-12---------------------10----------10----10/12-|
G|---------------------------------------------------------------|
D|---------------------------------------------------------------|
A|---------------------------------------------------------------|
E|---------------------------------------------------------------|

[Parte 2 de 2]

E|--------------------12/10-9-10-9-------10-9--------------------|
B|-9h10-12---9h10-12-----------------10--------10----10/12---9---|
G|---------------------------------------------------------------|
D|---------------------------------------------------------------|
A|---------------------------------------------------------------|
E|---------------------------------------------------------------|
   E7M
Quando eu te encontrar vou te levar
                         D7M
Pra ver o rio da minha janela
      E7M
Sob a luz e muito axé

Depois de você é
            D7M
A vista mais bela
   C#m              Bm
A dor que morava no coração
                   C#m
Vazou pra longe de avião
                          D7M
Quando a gente que se escolheu para amar
 C#m                           Bm
Amor que vem através do teu ser
                    C#m
Faz o meu corpo transcender
          Dm         E
Ter você aqui faz a vida melhorar
F7M        Em            Dm
Sabe lá se devo te esperar

(Se devo te esperar)
F7M        Em          Dm        Em
Deixo você ir ou vou atrás te buscar
       Fm
Pois aquilo que me fere
                                C7M
É o mesmo que me inspira a cantar
   Fm
Aquilo que me fere
                              C7M
É o mesmo que me leva a cantar
 E7M
Quando eu te encontrar
                                C#7M
Deixa pra quando eu te encontrar

Clipes