Nothing Else Matters

Metallica

A
123
X02220
Am
123
X02210
B5
134
X244XX
B7
1234
X21202
C
123
X32010
C5
134
X355XX
C5(9)
34
X35533
C9
34
X35533
D
123
XX0232
D4
123
XX0233
D5
134
X577XX
D9
12
XX0230
E5
12
022XXX
Em
12
022000
F#5
134
244XXX
G
123
320003
G#5
134
466XXX
G5
134
355XXX
Tom: G
[Intro]

(Violão)

Parte 1 de 11

#1t1#   Em
#1t2#E|-------------0--------------------------|
B|---------0------0-----------------------|
G|-----0--------------0-------------------|
D|----------------------------------------|
A|----------------------------------------|
E|-0--------------------------------------|#/1t2##/1t1#

#2t1#   Em
#2t2#E|-------------0--------------------------|
B|---------0------0-----------------------|
G|-----0--------------0-------------------|
D|----------------------------------------|
A|----------------------------------------|
E|-0--------------------------------------|#/2t2##/2t1#

#3t1#   Em
#3t2#E|-------------0--------------------------|
B|---------0------0-----------------------|
G|-----0--------------0-------------------|
D|----------------------------------------|
A|----------------------------------------|
E|-0--------------------------------------|#/3t2##/3t1#

Parte 2 de 11

#4t1#   Em
#4t2#E|----------0------7--7---------7p0-------|
B|-------0-----0---------0------0----0----|
G|----0---------------------0---0-------0-|
D|----------------------------------------|
A|----------------------------------------|
E|--0-----------------0-------------------|#/4t2##/4t1#

Parte 3 de 11

#5t1#   Em
#5t2#E|-------7--8--7h8/5--7--5/2--0-----------|
B|-------0--0---------0-------------------|
G|----0-----------------------------------|
D|----------------------------------------|
A|----------------------------------------|
E|-0--------------------------------------|#/5t2##/5t1#

Parte 4 de 11

#6t1#   Am
#6t2#E|-0--------2p0------------------0--0---0-|
B|-5-----5-------5------------5-----5---5-|
G|----5-------------5-----5---------5---5-|
D|----------------------------------------|
A|-0-------------------0------------0---2-|
E|----------------------------------------|#/6t2##/6t1#

Parte 5 de 11

#7t1#   C
#7t2#E|-0--------------3p0--------0------------|
B|-5--------5----------5-----5------------|
G|-5-----5-----5----------5--5------------|
D|----------------------------------------|
A|-3--3----------------------3------------|
E|----------------------------------------|#/7t2##/7t1#

Parte 6 de 11

#8t1#   D9
#8t2#E|-0---------------0h5--------------------|
B|-7--------7-----------7p0--0h5----------|
G|-7-----7-----7--------------------------|
D|----------------------------------------|
A|-5--5-----------------------------------|
E|----------------------------------------|#/8t2##/8t1#

Parte 7 de 11

#9t1# H.N. .   .   .
#9t2#E|------------12--------------------------|
B|--------12------0-----------------------|
G|----12-------------0--------------------|
D|----------------------------------------|
A|----------------------------------------|
E|-0--------------------------------------|#/9t2##/9t1#

Parte 8 de 11

#10t1#   Em
#10t2#E|-------------0--------------------------|
B|---------0------0-----------------------|
G|-----0--------------0-------------------|
D|----------------------------------------|
A|----------------------------------------|
E|-0--------------------------------------|#/10t2##/10t1#

Parte 9 de 11

#11t1#   Em               D         C
#11t2#E|----------------------------------------|
B|--------------8\--------7\-------5------|
G|-----------9---\--------7\-------5------|
D|--------9------\-----7---\-----5--------|
A|-----7---------\--5------\--3-----------|
E|-0--------------------------------------|#/11t2##/11t1#

Parte 10 de 11

#12t1#   G       B7
#12t2#E|----------------------------------------|
B|------3--------4------------------------|
G|------4--------2------------------------|
D|---5--------4---------------------------|
A|---------2------------------------------|
E|-3--------------------------------------|#/12t2##/12t1#

Parte 11 de 11

#13t1#   Em
#13t2#E|-------------0--------------------------|
B|---------0------0-----------------------|
G|-----0--------------0-------------------|
D|----------------------------------------|
A|----------------------------------------|
E|-0--------------------------------------|#/13t2##/13t1#

#14t1#   Em
#14t2#E|-------------0--------------------------|
B|---------0------0-----------------------|
G|-----0--------------0-------------------|
D|----------------------------------------|
A|----------------------------------------|
E|-0--------------------------------------|#/14t2##/14t1#

(Guitarra)

#15t1#   Em                  D         C
#15t2#E|---------------7-----------5---------3---|
B|---------------8-----------7---------5---|
G|------------9-----------7---------5------|
D|---------9-------------------------------|
A|------7--------------5---------3---------|
E|-0---------------------------------------|#/15t2##/15t1#

#16t1#   Em                  D         C
#16t2#E|---------------7-----------5---------3---|
B|---------------8-----------7---------5---|
G|------------9-----------7---------5------|
D|---------9-------------------------------|
A|------7--------------5---------3---------|
E|-0---------------------------------------|#/16t2##/16t1#

#17t1#   Em                  D           C
#17t2#E|---------------7-------------------------|
B|------------8--------10----------8-------|
G|---------9--------------11---------9-----|
D|------9--------------------12--------10--|
A|-----------------------------------------|
E|-0---------------------------------------|#/17t2##/17t1#

#18t1#   G         B7           Em
#18t2#E|-----------------------------------------|
B|-8---------7-----------------------------|
G|---7----------8--------------------------|
D|------9----------7----7\5~~--------------|
A|-----------------------------------------|
E|-----------------------------------------|#/18t2##/18t1#

[Primeira Parte]

(Violão)

Parte 1 de 4

#19t1#   Em               D    D4      C9
#19t2#E|-------3---0------2----3-------0---------|
B|-----0-------0-----------3-------3-------|
G|---0-----0-----0------------0------0-----|
D|------------------0--0-------------------|
A|-------------------------------3---------|
E|-0-----------------------------------3-2-|#/19t2##/19t1#

Parte 2 de 4

#20t1#   Em               D          C9
#20t2#E|-------3---0------2----------------------|
B|-----0-------0---------3-----3----3------|
G|---0-----0-----0---------2p0----0--------|
D|------------------0--0-------------------|
A|-----------------------------3-----------|
E|-0----------------------------------3-2--|#/20t2##/20t1#

Parte 3 de 4

#21t1#   Em                 D    D4    C9
#21t2#E|-------3----0-------2----3-----3---------|
B|-----0--------0------------3-----3-------|
G|---0------0-----0------------0-----0-----|
D|--------------------0--0-----------------|
A|-------------------------------3---------|
E|-0---------------------------------------|#/21t2##/21t1#

Parte 4 de 4

#22t1#   G     B7        Em
#22t2#E|-----3-2---2-----0-----0-----------0-----|
B|-----3-0-----0-------0---0-------0---0---|
G|---0---2-------2---0-------0---0---------|
D|-----------------------------------------|
A|-------2-2-------------------------------|
E|-3---------------0-----------0--------3-2|#/22t2##/22t1#

Parte 4 de 4 (Variação)

#23t1#   G     B7        Em            C   A
#23t2#E|-----3-2---2-----0-----0-------0---0-----|
B|-----3-0-----0-------0---0-----1---2-----|
G|---0---2-------2---0-------0---0---2-----|
D|-------------------------------2---2-----|
A|-------2-2---------------------3---0-----|
E|-3---------------0-----------------------|#/23t2##/23t1#

Parte 4 de 4 (Variação)

#24t1#   G     B7
#24t2#E|-----3-2---2-----------------------------|
B|-----3-0---0-----------------------------|
G|---0---2---2-----------------------------|
D|-----------------------------------------|
A|-------2-2-------------------------------|
E|-3---------------------------------------|#/24t2##/24t1#

(Guitarra Base)

#25t1#   Em              D     D4     C9
#25t2#E|-----------3-----2-----3------0---------|
B|--------0----------3-----3----3--3------|
G|-----0--------0------2-----2--0---------|
D|----------------------------------------|
A|------------------------------3---------|
E|-0----------------------------------3-2-|#/25t2##/25t1#

#26t1#   Em              D     D4     C9
#26t2#E|-----------3-----2-----3----------------|
B|--------0----------3-----3----3---------|
G|-----0--------0------2-----2--0--0------|
D|----------------------------------------|
A|------------------------------3---------|
E|-0----------------------------------3-2-|#/26t2##/26t1#

#27t1#   Em              D     D4     C9
#27t2#E|-----------3-----2-----3------3---------|
B|--------0----------3-----3----3--3------|
G|-----0--------0------2-----2--0-----0---|
D|----------------------------------------|
A|------------------------------3---------|
E|-0--------------------------------------|#/27t2##/27t1#

#28t1#   G5     B7     Em
#28t2#E|-----3--2--2h3-0-----0-----------0------|
B|-----3--0----------0---0-------0---0----|
G|---0----2--------0-------0---0----------|
D|----------------------------------------|
A|--------2-------------------------------|
E|-3-------------0-----------0---------3-2|#/28t2##/28t1#

Em                     D      D4  C9
   So close no matter how    far
Em                         D       C9
   Couldn't be much more from the heart
Em                    D  D4  C9
   Forever trusting who we   are
G5      B7           Em
   And nothing else matters

(Riff 1)
Em                 D     D4  C9
   Never opened myself this way
Em                          D       C9
   Life is ours, we live it our way
Em                          D   D4  C9
   All these words I don't just    say
G5      B7           Em
   And nothing else matters

(Riff 2)
Em                     D   D4  C9
   Trust I seek and I find in you
Em                   D         C9
   Every day for us something new
Em                  D    D4    C9
   Open mind for a different view
G5      B7           Em      C  A
   And nothing else matters

[Passagem]

#29t1#   C       A
#29t2#E|----------------------------------------|
B|-1-------2------------------------------|
G|-0-------2------------------------------|
D|-2-------2------------------------------|
A|-3-------0------------------------------|
E|----------------------------------------|#/29t2##/29t1#

[Primeiro Refrão]

(Guitarra)

#30t1#   D5              C       A
#30t2#E|-----------------------------------------|
B|-3---------------1-------2---------------|
G|-2---------------0-------2---------------|
D|-0---------------2-------2---------------|
A|-----------------3-------0---------------|
E|-----------------------------------------|#/30t2##/30t1#

#31t1#   D5              C       A
#31t2#E|-----------------------------------------|
B|-3---------------1-------2---------------|
G|-2---------------0-------2---------------|
D|-0---------------2-------2---------------|
A|-----------------3-------0---------------|
E|-----------------------------------------|#/31t2##/31t1#

#32t1#   P.M.         .  .         .  .
#32t2#E|-----------------------------------------|
B|-----------------------------------------|
G|---------------------------------7/9~~---|
D|-------5~~----------7~~-------7----------|
A|----7------------7---------5-------------|
E|-8------------8--------------------------|#/32t2##/32t1#

D         D4   D        D9       C  A
   Never ca___red for what they do
D         D4   D        D9        C   A
   Never ca___red for what they know
D          Em
   But I know

[Segunda Parte]

Em                     D  D4  C9
   So close no matter how    far
Em                         D        C9
   Couldn't be much more from the heart
Em                    D  D4  C9
   Forever trusting who we   are
G5      B7           Em      C  A
   And nothing else matters

[Segundo Refrão]

D         D4   D        D9       C  A
   Never ca___red for what they do
D         D4   D        D9        C   A
   Never ca___red for what they know
D          Em
   But I know

[Primeiro Solo]

(Violão)

Parte 1 de 4

#33t1##33t2#E|-12------14------15------17------------------------|
B|----12------12------12------12---------------------|
G|---------------------------------------------------|
D|---------------------------------------------------|
A|---------------------------------------------------|
E|-0-----0-0-----0-0-----0-0-----0-------------------|#/33t2##/33t1#

Parte 2 de 4

#34t1##34t2#E|-8------8-------------8----------------------------|
B|---5------5---------5---5--------------------------|
G|-----5------5-----5-------5\-----------------------|
D|---------------------------------------------------|
A|-0-------------0-----------------------------------|
E|---------------------------------------------------|#/34t2##/34t1#

#35t1#Parte 3 de 4
   C               D9
#35t2#E|-0---------0-----0--------0------------------------|
B|---1---------1-----3--------3----------------------|
G|-----0---------------2-----------------------------|
D|-----------------0-----0---------------------------|
A|-3------3------------------------------------------|
E|---------------------------------------------------|#/35t2##/35t1#

Parte 4 de 4

#36t1#   Em
#36t2#E|-0h7-------7p0-----------0-------------------------|
B|------0--------0-------0---0-----------------------|
G|--------0--------0---0-------0---------------------|
D|---------------------------------------------------|
A|---------------------------------------------------|
E|-0-----------------0-------------------------------|#/36t2##/36t1#

(Guitarra)

#37t1##37t2#E|-15----------17----------19----------20------------|
B|------17----------17----------17----------17-------|
G|---------------------------------------------------|
D|---------------------------------------------------|
A|---------------------------------------------------|
E|---------------------------------------------------|#/37t2##/37t1#

#38t1##38t2#E|-12------------------------------------------------|
B|------13~------------------------------------------|
G|---------------------------------------------------|
D|---------------------------------------------------|
A|---------------------------------------------------|
E|---------------------------------------------------|#/38t2##/38t1#

#39t1##39t2#E|-/12-----------/14-------------------12----12------|
B|------13------------15----------12-------------12--|
G|----------12------------14-------------------------|
D|---------------------------------------------------|
A|---------------------------------------------------|
E|---------------------------------------------------|#/39t2##/39t1#

#40t1##40t2#E|-15----------17----------19----------20------------|
B|------17----------17----------17----------17-------|
G|---------------------------------------------------|
D|---------------------------------------------------|
A|---------------------------------------------------|
E|---------------------------------------------------|#/40t2##/40t1#

#41t1##41t2#E|-12------------------------------------------------|
B|------13~------------------------------------------|
G|---------------------------------------------------|
D|---------------------------------------------------|
A|---------------------------------------------------|
E|---------------------------------------------------|#/41t2##/41t1#

#42t1##42t2#E|-/12-----------------------------------------------|
B|------13-------------------------------------------|
G|----------12-------12---12h14~~--12h14-14b16r14-12~|
D|----------------------x----------------------------|
A|---------------------------------------------------|
E|---------------------------------------------------|#/42t2##/42t1#

#43t1##43t2#E|---------------------------------------------------|
B|-12------12------12--------------------------------|
G|-14b16---14b16---14b16r14h12---------------12------|
D|-----------------------------14~-12-12h14------14~~|
A|---------------------------------------------------|
E|---------------------------------------------------|#/43t2##/43t1#

(Riff 1)
Em                 D     D4  C9
   Never opened myself this way
Em                          D    C9
   Life is ours, we live it our way
Em                          D   D4  C9
   All these words I don't just    say
G5      B7           Em
   And nothing else matters

(Riff 2)
Em                     D   D4  C9
   Trust I seek and I find in you
Em                   D         C9
   Every day for us something new
Em                  D    D4    C9
   Open mind for a different view
G5      B7           Em      C  A
   And nothing else matters

[Terceiro Refrão]

D         D4   D        D9       C  A
   Never car___ed for what they say
D         D4   D       D9          C   A
   Never ca___red for games they play
D         D4   D        D9       C  A
   Never ca___red for what they do
D         D4   D        D9        C   A
   Never ca___red for what they know
D          Em
   And I know, Yeah!

[Segundo Solo] E5  D5  C5  ( F#5  G#5  F#5 )
               E5  D5  C5  ( F#5  G#5  F#5 )
               E5  D5  C5  ( F#5  G#5  F#5 )
               G5  B5  E5

#44t1##44t2#E|---------------------------------------------------|
B|-15------15----------------------------------------|
G|-14b16~--14b16r14--12~~--12p11--12p11--9--11-------|
D|---------------------------------------------12/14~|
A|---------------------------------------------------|
E|---------------------------------------------------|#/44t2##/44t1#

#45t1##45t2#E|-----------------12--------12----------------------|
B|------------------------------15p12----12----------|
G|-12-14-12-14b16------14b16----------15----15-14----|
D|---------------------------------------------------|
A|---------------------------------------------------|
E|---------------------------------------------------|#/45t2##/45t1#

#46t1##46t2#E|---------------------------------------------------|
B|--------------14---14-13-12~~----------------------|
G|-14h15p14p12--14---14-13-12~~----------------------|
D|---------------------------------------------------|
A|---------------------------------------------------|
E|---------------------------------------------------|#/46t2##/46t1#

#47t1##47t2#E|-/15--14------15--14--15/17--15--14h15p14-12-------|
B|----------12----------------------------------12---|
G|---------------------------------------------------|
D|---------------------------------------------------|
A|---------------------------------------------------|
E|---------------------------------------------------|#/47t2##/47t1#

#48t1##48t2#E|-15-14---------------------------------------------|
B|-------12~~-------------15-------------------------|
G|---------------12-14-12-14b16r14p12----12-14b16----|
D|------------------------------------14-------------|
A|---------------------------------------------------|
E|---------------------------------------------------|#/48t2##/48t1#

#49t1##49t2#E|----12---------------------------------------------
B|-12----15--15b17r15p12--15b17~~r-------------------|
G|---------------------------------------------------|
D|---------------------------------------------------|
A|---------------------------------------------------|
E|---------------------------------------------------|#/49t2##/49t1#

#50t1##50t2#E|---------------------------------------------------|
B|-12h15p12------7b¼r7--5h7p5~~----------------------|
G|---------------------------------------------------|
D|---------------------------------------------------|
A|---------------------------------------------------|
E|---------------------------------------------------|#/50t2##/50t1#

#51t1##51t2#E|---------------------------------------------------|
B|--7---8----5~~-------------------------------------|
G|---------------------------------------------------|
D|---------------------------------------------------|
A|---------------------------------------------------|
E|---------------------------------------------------|#/51t2##/51t1#

So close no matter how far

#52t1##52t2#E|---------------------------------------------------|
B|-7----8\3~~----------------------------------------|
G|---------------------------------------------------|
D|---------------------------------------------------|
A|---------------------------------------------------|
E|---------------------------------------------------|#/52t2##/52t1#

Couldn't be much more from the heart

#53t1##53t2#E|---------------------------------------------------|
B|-7--8---12~~~~~------------------------------------|
G|---------------------------------------------------|
D|---------------------------------------------------|
A|---------------------------------------------------|
E|---------------------------------------------------|#/53t2##/53t1#

Forever trusting who we   are
And nothing else matters

[Parte Final]

#54t1#   Em
#54t2#E|-0-----------0---------------------------|
B|---------0------0------------------------|
G|-----0--------------0--------------------|
D|-----------------------------------------|
A|-----------------------------------------|
E|-0---------------------------------------|#/54t2##/54t1#

#55t1##55t2#E|----------0------7--7--------7p0---------|
B|-------0-----0---------0-----0----0------|
G|----0---------------------0--0------0----|
D|-----------------------------------------|
A|-----------------------------------------|
E|--0-----------------0--------------------|#/55t2##/55t1#

#56t1##56t2#E|-0-----7--8--7h8/5--7--5/2--0------------|
B|-------0--0---------0--------------------|
G|----0------------------------------------|
D|-----------------------------------------|
A|-----------------------------------------|
E|-0---------------------------------------|#/56t2##/56t1#

[Riff 1]

(Guitarra 1)

#57t1#   Em      D   D4  C9     Em        D   D4  C9
#57t2#E|---------------------------------------------------|
B|-8~------10--12--8~---------------10--12--13~------|
G|---------------------------------------------------|
D|---------------------------------------------------|
A|---------------------------------------------------|
E|---------------------------------------------------|#/57t2##/57t1#

#58t1#   Em      D   D4  C5(9)  G         B7  Em
#58t2#E|---------------------------------------------------|
B|-12~-----10--12--8~---------------7~-----5~--------|
G|---------------------------------------------------|
D|---------------------------------------------------|
A|---------------------------------------------------|
E|---------------------------------------------------|#/58t2##/58t1#

(Guitarra 2)

#59t1#   Em      D   D4  C9     Em        D   D4  C9
#59t2#E|---------------------------------------------------|
B|---------------------------------------------------|
G|-9~------11--12--9~---------------11--12--12~------|
D|---------------------------------------------------|
A|---------------------------------------------------|
E|---------------------------------------------------|#/59t2##/59t1#

#60t1#   Em      D   D4  C5(9)  G         B7  Em
#60t2#E|---------------------------------------------------|
B|---------------------------------------------------|
G|-12~-----11--12--9~---------------9~---------------|
D|---------------------------------------------------|
A|---------------------------------------------------|
E|---------------------------------------------------|#/60t2##/60t1#

[Riff 2]

(Guitarra Solo)

#61t1#   Em                        D   D4  C9
#61t2#E|---------------------------------------------------|
B|---------------------------------------------------|
G|---------------------------------------------------|
D|---------------------------------------------------|
A|--------10---10/12--12\10--9--10--7~---------------|
E|-0--------------------------------------------3-2--|#/61t2##/61t1#

#62t1#   Em                        D   D4  C9
#62t2#E|---------------------------------------------------|
B|---------------------------------------------------|
G|---------------------------------------------------|
D|---------------------------------------------------|
A|--------10---10/12--12\10--9~--5~--5~--------------|
E|-0---------------------------------------------3-2-|#/62t2##/62t1#

#63t1#   Em                        D   D4  C5(9)
#63t2#E|---------------------------------------------------|
B|---------------------------------------------------|
G|---------------------------------------------------|
D|---------------------------------------------------|
A|--------10---10/12--12\10--9--10--7~---------------|
E|-0---------------------------------------------3---|#/63t2##/63t1#

#64t1#   G5          B7          Em
#64t2#E|---------------------------------------------------|
B|---------------------------------------------------|
G|---------------------------------------------------|
D|-------------4-----------2-------------------------|
A|-----2-3-2---2---2-3-2---2-------------------------|
E|-3-----------------------0-------------------------|#/64t2##/64t1#
Composição: James Hetfield / Lars UlrichColaboração e revisão: Thiago AlmeidaMarcelo ColleoniWilson BorgesRicardo Reise mais 9
Videoaula Nothing Else Matters (violão e guitarra)