busca

Nothing Else Matters

Metallica

Tom: G
[Introdução – Guitarra]

     Em                  D         C
E|---------------7-----------5---------3---|
B|---------------8-----------7---------5---|
G|------------9-----------7---------5------|  (2x)
D|---------9-------------------------------|
A|------7--------------5---------3---------|
E|-0---------------------------------------|

     Em                  D           C
E|---------------7-------------------------|
B|------------8--------10----------8-------|
G|---------9--------------11---------9-----|
D|------9--------------------12--------10--|
A|-----------------------------------------|
E|-0---------------------------------------|

     G         B7          Em
E|-----------------------------------------|
B|-8---------7-----------------------------|
G|---7---------8---------------------------|
D|-----9----------7----7\5~~---------------|
A|-----------------------------------------|
E|-----------------------------------------|


[Primeira Parte -  Guitarra]

     Em              D     D4     C9
E|-----------3-----2-----3------0---------|
B|--------0----------3-----3----3--3------|
G|-----0--------0------2-----2--0---------|
D|----------------------------------------|
A|------------------------------3---------|
E|-0----------------------------------3-2-|

     Em              D     D4     C9
E|-----------3-----2-----3----------------|
B|--------0----------3-----3----3---------|
G|-----0--------0------2-----2--0--0------|
D|----------------------------------------|
A|------------------------------3---------|
E|-0----------------------------------3-2-|

     Em              D     D4     C5(9)
E|-----------3-----2-----3------3---------|
B|--------0----------3-----3----3--3------|
G|-----0--------0------2-----2--0-----0---|
D|----------------------------------------|
A|------------------------------3---------|
E|-0--------------------------------------|

     G5     B7     Em
E|-----3--2--2h3-0-----0-----------0------|
B|-----3--0----------0---0-------0---0----|
G|---0----2--------0-------0---0----------|
D|----------------------------------------|
A|--------2-------------------------------|
E|-3-------------0-----------0---------3-2|


Em                     D  D4  C9
   So close no matter how    far
Em                         D    D4  C9
   Couldn't be much more from the heart
Em                    D  D4  C5(9)
   Forever trusting who we   are
G5      B7           Em
   And nothing else matters

[Riff 1]

Em                 D     D4  C9
   Never opened myself this way
Em                          D    D4  C9
   Life is ours, we live it our way
Em                          D   D4  C5(9)
   All these words I don't just    say
G5      B7           Em
   And nothing else matters

[Riff 2]

Em                     D   D4  C9
   Trust I seek and I find in you
Em                   D    D4   C9
   Every day for us something new
Em                  D    D4    C5(9)
   Open mind for a different view
G5      B7           Em      ( C  A )
   And nothing else matters

[Passagem]

     C       A
E|----------------------------------------|
B|-1-------2------------------------------|
G|-0-------2------------------------------|
D|-2-------2------------------------------|
A|-3-------0------------------------------|
E|----------------------------------------|


[Refrão]

     D5              C       A
E|-----------------------------------------|
B|-3---------------1-------2---------------|
G|-2---------------0-------2---------------| (2x)
D|-0---------------2-------2---------------|
A|-----------------3-------0---------------|
E|-----------------------------------------|

   P.M.         .  .         .  .
E|-----------------------------------------|
B|-----------------------------------------|
G|---------------------------------7/9~~---|
D|-------5~~----------7~~-------7----------|
A|-3--7---------3--7---------5-------------|
E|-----------------------------------------|

D        D4   D        D5(9)   D   C  A
  Never ca___red for what    they do
D        D4   D        D5(9)   D    C  A
  Never ca___red for what    they know
D         Em
  But I know

Em                     D  D4  C9
   So close no matter how    far
Em                         D    D4  C9
   Couldn't be much more from the heart
Em                    D  D4  C5(9)
   Forever trusting who we   are
G5      B7           Em     ( C  A )
   And nothing else matters

[Segundo Refrão]

D        D4   D        D5(9)   D   C  A
  Never ca___red for what    they do
D        D4   D        D5(9)   D    C  A
  Never ca___red for what    they know
D         Em
  But I know

[Primeiro Solo]

E|-15----------17----------19----------20------------|
B|------17----------17----------17----------17-------|
G|---------------------------------------------------|
D|---------------------------------------------------|
A|---------------------------------------------------|
E|---------------------------------------------------|

E|-12------------------------------------------------|
B|------13~------------------------------------------|
G|---------------------------------------------------|
D|---------------------------------------------------|
A|---------------------------------------------------|
E|---------------------------------------------------|

E|-/12-----------/14-------------------12----12------|
B|------13------------15----------12-------------12--|
G|----------12------------14-------------------------|
D|---------------------------------------------------|
A|---------------------------------------------------|
E|---------------------------------------------------|

E|-15----------17----------19----------20------------|
B|------17----------17----------17----------17-------|
G|---------------------------------------------------|
D|---------------------------------------------------|
A|---------------------------------------------------|
E|---------------------------------------------------|

E|-12------------------------------------------------|
B|------13~------------------------------------------|
G|---------------------------------------------------|
D|---------------------------------------------------|
A|---------------------------------------------------|
E|---------------------------------------------------|

E|-/12-----------------------------------------------|
B|------13-------------------------------------------|
G|----------12-------12---12h14~~--12h14-14b16r14-12~|
D|----------------------x----------------------------|
A|---------------------------------------------------|
E|---------------------------------------------------|

E|---------------------------------------------------|
B|-12------12------12--------------------------------|
G|-14b16---14b16---14b16r14h12---------------12------|
D|-----------------------------14~-12-12h14------14~~|
A|---------------------------------------------------|
E|---------------------------------------------------|

[Riff 1]

Em                 D     D4  C9
   Never opened myself this way
Em                          D    D4  C9
   Life is ours, we live it our way
Em                          D   D4  C5(9)
   All these words I don't just    say
G5      B7           Em
   And nothing else matters

[Riff 2]

Em                     D   D4  C9
   Trust I seek and I find in you
Em                   D    D4   C9
   Every day for us something new
Em                  D    D4    C5(9)
   Open mind for a different view
G5      B7           Em     ( C  A )
   And nothing else matters

[Terceiro Refrão]

D        D4   D        D5(9)   D   C  A
  Never car___ed for what    they say
D        D4   D       D5(9)   D    C  A
  Never ca___red for games  they play
D        D4   D        D5(9)   D   C  A
  Never ca___red for what    they do
D        D4   D        D5(9)   D    C  A
  Never ca___red for what    they know
D         Em
  And I know, yeah!

[Segundo Solo] E5  D5  C5  ( F#5  G#5  F#5 )
               E5  D5  C5  ( F#5  G#5  F#5 )

E|---------------------------------------------------|
B|-15------15----------------------------------------|
G|-14b16~--14b16r14--12~~--12p11--12p11--9--11--7/9~-|
D|---------------------------------------------------|
A|---------------------------------------------------|
E|---------------------------------------------------|

E|-----------------12--------12----------------------|
B|------------------------------15p12----12----------|
G|-12-14-12-14b16------14b16----------15----15-14----|
D|---------------------------------------------------|
A|---------------------------------------------------|
E|---------------------------------------------------|


E|---------------------------------------------------|
B|--------------14---14-13-12~~----------------------|
G|-14h15p14p12--14---14-13-12~~----------------------|
D|---------------------------------------------------|
A|---------------------------------------------------|
E|---------------------------------------------------|

E|-/15--14------15--14--15/17--15--14h15p14-12-------|
B|----------12----------------------------------12---|
G|---------------------------------------------------|
D|---------------------------------------------------|
A|---------------------------------------------------|
E|---------------------------------------------------|

E|-15-14---------------------------------------------|
B|-------12~~-------------15-------------------------|
G|---------------12-14-12-14b16r14p12----12-14b16----|
D|------------------------------------14-------------|
A|---------------------------------------------------|
E|---------------------------------------------------|

E|----12---------------------------------------------|
B|-12----15--15b17r15p12--15b17~~r-------------------|
G|---------------------------------------------------|
D|---------------------------------------------------|
A|---------------------------------------------------|
E|---------------------------------------------------|

E|---------------------------------------------------|
B|-12h15p12------7b1/4r7--5h7p5~~--------------------|
G|---------------------------------------------------|
D|---------------------------------------------------|
A|---------------------------------------------------|
E|---------------------------------------------------|

E|---------------------------------------------------|
B|--------------------7---8----5~~-------------------|
G|---------------------------------------------------|
D|---------------------------------------------------|
A|---------------------------------------------------|
E|---------------------------------------------------|

So close no matter how far

E|---------------------------------------------------|
B|------------------------7----8\3~~-----------------|
G|---------------------------------------------------|
D|---------------------------------------------------|
A|---------------------------------------------------|
E|---------------------------------------------------|

Couldn't be much more from the heart

E|---------------------------------------------------|
B|-------------------7--8---12~~~~-------------------|
G|---------------------------------------------------|
D|---------------------------------------------------|
A|---------------------------------------------------|
E|---------------------------------------------------|
  Forever trusting who we   are
And nothing else matters

[Riff 1]

(Guitarra 1)

     Em      D   D4  C9     Em        D   D4  C9
E|---------------------------------------------------|
B|-8~------10--12--8~---------------10--12--13~------|
G|---------------------------------------------------|
D|---------------------------------------------------|
A|---------------------------------------------------|
E|---------------------------------------------------|

     Em      D   D4  C5(9)  G         B7  Em
E|---------------------------------------------------|
B|-12~-----10--12--8~---------------7~-----5~--------|
G|---------------------------------------------------|
D|---------------------------------------------------|
A|---------------------------------------------------|
E|---------------------------------------------------|

(Guitarra 2)

     Em      D   D4  C9     Em        D   D4  C9
E|---------------------------------------------------|
B|---------------------------------------------------|
G|-9~------11--12--9~---------------11--12--12~------|
D|---------------------------------------------------|
A|---------------------------------------------------|
E|---------------------------------------------------|

     Em      D   D4  C5(9)  G         B7  Em
E|---------------------------------------------------|
B|---------------------------------------------------|
G|-12~-----11--12--9~---------------9~---------------|
D|---------------------------------------------------|
A|---------------------------------------------------|
E|---------------------------------------------------|


[Riff 1]

     Em                        D   D4  C9
E|---------------------------------------------------|
B|---------------------------------------------------|
G|---------------------------------------------------|
D|---------------------------------------------------|
A|--------10---10/12--12\10--9--10--7~---------------|
E|-0---------------------------------------------3-2-|

     Em                        D   D4  C9
E|---------------------------------------------------|
B|---------------------------------------------------|
G|---------------------------------------------------|
D|---------------------------------------------------|
A|--------10---10/12--12\10--9~--5~--5~--------------|
E|-0---------------------------------------------3-2-|

     Em                        D   D4  C5(9)
E|---------------------------------------------------|
B|---------------------------------------------------|
G|---------------------------------------------------|
D|---------------------------------------------------|
A|--------10---10/12--12\10--9--10--7~---------------|
E|-0---------------------------------------------3---|

     G5          B7          Em
E|---------------------------------------------------|
B|---------------------------------------------------|
G|---------------------------------------------------|
D|-------------4-----------2-------------------------|
A|-----2-3-2---2---2-3-2---2-------------------------|
E|-3-----------------------0-------------------------|

Clipes

Cifra Club Pro

Aproveite o Cifra Club com benefícios exclusivos e sem anúncios
7 dias grátis
Cifra Club Pro
Aproveite o Cifra Club com benefícios exclusivos e sem anúncios
7 dias grátis