Implorando Pra Trair (part. Gusttavo Lima)

Michel Teló

A
123
X02220
Bm
234
X24432
D
123
XX0232
D9
12
XX0230
Em7
123
022030
G/B
123
X20033
Tom: G

[Intro]
               D             G/B   
E|----5-4-0--2/4----0--0/2/4-0---
B|---------0-3/5----0--0/2/5-2---
G|-4/6-------2/4----1--------2---
D|---------------------------2---
A|---------------------------0---
E|-------------------------------
       D           G/B
E|/7-5-4-0--2/4----0--0/2/4-0-| 
B|----------3/5----0--0/2/5-2-| 
G|----------2/4----1--------2-| 
D|----------0-----------------| 
A|----------------------------| 
E|----------------------------| 


    D9                          
Eu já nem lembro mais qual foi a 
                 Bm
última vez que me tocou
    D9                             
Nem riu daqueles comentários bobos 
               Bm
que eu digo e sempre gostou
       G/B               Em7
Sai sem avisar, chega de manhã
          A                        
E eu parecendo a última pessoa que 
    D9
queria ver
             G/B     D9        Em7
Vejo em seu olhar, vamos conversar
G/B A Pra saber se ainda vale a pena! [Refrão] D9 Quer saber? A solidão tá ali na Bm sala me chamando pra sair E o coração dando porrada implorando G/B pra trair Em7 G/B Diz você, diz o que vai ser da gente agora A Ou me ama ou deixa eu ir embora. D9 Quer saber? A solidão tá ali na Bm sala me chamando pra sair E o coração dando porrada implorando G/B pra trair Em7 G/B Diz você, diz o que vai ser da gente agora A Ou me ama ou deixa eu ir embora de vez!
Composição: Douglas Mello / Flávinho Tinto / Nando MarxColaboração e revisão: gabrielksagrandeLucas PaullukTiegoDouglas Silva