Am
123
X02210
Am7
12
X02010
B7
1234
X21202
Bm/F#
1234
XX4432
Bm7
34
X24232
C
123
X32010
C7M(9)
1234
X3243X
D
123
XX0232
D11/F#
1234
2XX233
D4
123
XX0233
D7
123
XX0212
D7(4)
123
XX0213
E/G#
1234
4X245X
E4
123
022200
Em
12
022000
Em/D
123
XX0453
Em9/D
1234
X5547X
G
123
320003
G4/B
12
X2001X
Tom: G
[Intro]

G  C7M(9)  E4  C

Parte 1


   G                C7M(9)
E|--------------------------------
B|-0-------0-----3--0-------0-----
G|-----2-------0--------2-------0-
D|---0---0---0--------0---0---0---
A|------------------3-------------
E|-3------------------------------

E|----------| 
B|3---------| 
G|----------| 
D|----------| 
A|----------| 
E|----------| 


Parte 2


   E4               C
E|--------------------------------
B|-0-------0----------------------
G|-----2-------2-0----------------
D|---2---2---2------2---2---2-----
A|------------------3-3---3-------
E|-0------------------------------


[Primeira Parte]

 G             Bm/F#    Em
Jó, como pode ainda adorar
              Em9/D        C
Se não tem motivos pra cantar
                      D7(4)  D7
Abandona esse Deus e morre

 G               Bm/F#        Em
Mas não O adoro pelo que Ele faz
               Em9/D     Am
Nem menos por bens materiais
       E/G#             Am7
Eu O adoro pelo que Ele é
               D7(4)       D4
Eu sou d’Ele, tudo é d’Ele

[Primeira Parte]

Parte 1


   G        Bm/F#    Em       Em9/D
E|--------------------------------
B|-3---3----3---3----0---0----0---
G|-4---4----4---4----0---0----0---
D|-5-5---5--4-4---4--2-2---2--4-4-
A|----------------------------5---
E|-3--------2--------0------------

E|----------| 
B|0---------| 
G|0---------| 
D|--4-------| 
A|----------| 
E|----------| 


Parte 2


   C                D7(4)   D7
E|--------------------------------
B|-1---1---1---1----3---3---------
G|-0---0---0---0----5---5---------
D|-2-2---2---2---2--5-5---5-4-----
A|-3----------------5-------5-----
E|--------------------------------


Parte 3


   G        Bm/F#    Em       Em9/D
E|--------------------------------
B|-3---3----3---3----0---0----0---
G|-4---4----4---4----0---0----0---
D|-5-5---5--4-4---4--2-2---2--4-4-
A|----------------------------5---
E|-3--------2--------0------------

E|----------| 
B|0---------| 
G|0---------| 
D|--4-------| 
A|----------| 
E|----------| 


Parte 4


   Am       E/G#    Am7      D7(4)
E|--------------------------------
B|-1---1----0---0----1---1----3---
G|-2---2----1---1----0---0----5---
D|-2-2---2--2-2---2--2-2---2--5-5-
A|-3-----------------0--------5---
E|----------0---------------------

E|----------| 
B|3---------| 
G|5---------| 
D|--5-------| 
A|----5-----| 
E|----------| 


[Pré-Refrão]

 C                  Em
Jó, você não tem motivos

Perdeu os seus bens
                    C
Seus filhos, seus amigos
                  G
O que você vai fazer
Am Eu vou adorar Em Simplesmente adorar C D Eu vou adorar [Refrão] G D11/F# Deus me deu, Deus tomou Em Em/D C Bendito seja o nome do Senhor G4/B Am D4 D A Ele a Glória, a Ele a Honra E o louvor [Intro] G C7M(9) E4 C [Primeira Parte] G D11/F# Em Jó, como pode ainda adorar Em/D C Se não tem motivos pra cantar D4 D Abandona esse Deus e morre G D11/F# Em Mas não O adoro pelo que Ele faz Em/D Am Nem menos por bens materiais E/G# Am Eu O adoro pelo que Ele é D4 D Eu sou d’Ele, tudo é d’Ele [Pré-Refrão] C Em Jó, você não tem motivos Perdeu os seus bens C Seus filhos, seus amigos G O que você vai fazer Am Eu vou adorar Em Simplesmente adorar C D Eu vou adorar [Refrão] G D11/F# Deus me deu, Deus tomou Em Em/D C Bendito seja o nome do Senhor G4/B Am D4 D A Ele a Glória, a Ele a Honra G E o louvor [Segunda Parte] Em Am A Ele a glória D Bm7 B7 A Ele a glória Em Am A Ele a glória D G B7 A Ele a glória Em Am A Ele a glória D Bm7 B7 A Ele a glória Em Am A Ele a glória D C Pra sempre, Amém Amém [Refrão] G D11/F# Deus me deu, Deus tomou Em Em/D C Bendito seja o nome do Senhor G4/B Am D4 D A Ele a glória, a Ele a honra Am D E o louvor G D11/F# Deus me deu, Deus tomou Em Em/D C Bendito seja o nome do Senhor G4/B Am D4 D A Ele a glória, a Ele a honra E o louvor [Final] G C7M(9) E4 C
Composição: Delino MarcalColaboração e revisão: Leandro SandimLuís PrismicLucas KappaunLucas Kappaune mais 16
Videoaula JÓ (aula de violão completa)

Utilizamos cookies para personalizar sua experiência. Ao acessar o site, você concorda com a nossa Política de Privacidade.