busca

Não Pare

Midian Lima

Tom: A
[Intro]

E|-0---0---7--0---0---7--0---0---7--5p4-----|
B|---7---7------7---7------7---7------------|
G|--------------------------------------6---|
D|------------------------------------------|
A|-7----------6----------4--------------0---|
E|------------------------------------------|

[Primeira Parte]

       E5            B/D#
Amanheceu, nada pesquei
     F#5            E/G#    A
Parecia ser apenas mais um dia
 
Como qualquer outro

           E5
Estava cansado
                   B/D#
Sem forças, desanimado
     F#m               E/G#  A
Decidida a largar tudo e  parar

[Dedilhado Primeira Parte]

Parte 1 de 2

  E5   B/D#  F#5  E/G#  A
E|------------------------------------------|
B|------7----2----------2-------------------|
G|-9--------------4-------------------------|
D|-9----9---------2-----2-------------------|
A|-7----6---------------0-------------------|
E|-----------2----4-------------------------|

Parte 2 de 2

   E5  B/D#   F#m  E/G#  A  
E|------------------------------------------|
B|------7--9--10----5----2------------------|
G|-9----------------4-----------------------|
D|-9----9-----11---------2------------------|
A|-7----6------9---------0------------------|
E|------------------4-----------------------|


[Pré-refrão]

 E           
Deus conhece tua estrutura
 B4/D#
Sabe o que está fazendo
 C#m7
Mesmo que seja difícil
     A9
Não pares, Ele está vendo

 E
Colheu todas tuas lágrimas
B4/D#
E mandou a ti falar
 F#m7(11)
Pegue o que Ele te entregou
         E/G#   A9
E volte para o mar, que é o teu lugar

[Refrão]

                      E
Quem mandou largar a rede
                    B4
Quem mandou você parar
                 F#m7(11)
Volte para o mar alto

No lugar da tua vergonha
        E/G#  A9
Eu vou te honrar

                      E
Quem mandou largar a rede
                    B4
Quem mandou você parar
                 F#m7(11)
Volte para o mar alto

No lugar da tua vergonha
        E/G#  A9
Eu vou te honrar

Filho, Eu vou te honrar

[Intro]

E  B/D#  C#m  A

[Pré-refrão]

 E           
Deus conhece tua estrutura
 B4/D#
Sabe o que está fazendo
 C#m7
Mesmo que seja difícil
     A9
Não pares, Ele está vendo

 E
Colheu todas tuas lágrimas
B4/D#
E mandou a ti falar
 F#m7(11)
Pegue o que Ele te entregou
         E/G#   A9
E volte para o mar, que é o teu lugar

[Refrão]

                      E
Quem mandou largar a rede
                    B4
Quem mandou você parar
                 F#m7(11)
Volte para o mar alto

No lugar da tua vergonha
        E/G#  A9
Eu vou te honrar

                      E
Quem mandou largar a rede
                    B4
Quem mandou você parar
                 F#m7(11)
Volte para o mar alto

No lugar da tua vergonha
        E/G#  A9
Eu vou te honrar

Filho, Eu vou te honrar

[Ponte]

E  B4/D#        C#m7              A9
         Ó, filho, a noite já passou
               E
A tua hora chegou
             B4/D#
Pegue a tua rede e volte para o mar
C#m7                A9
     Vou te esperar    no mar

[Segunda Parte]

F#m7(11)             E/G#   A9
         Não é hora de   parar
                     B4   C#m7
Deus contemplou seu caminhar
                         E7M
Eu sei, é difícil prosseguir
                    F#m7(11)
Quando tudo lhe faltar

              E/G#  A9
Esse cenário vai mudar
             B4  C#m7
A tua hora chegará
              B4
Há tempo pra tudo

[Refrão Final]

                      F
Quem mandou largar a rede
                    C4
Quem mandou você parar
                 Gm7(11)
Volte para o mar alto

No lugar da tua vergonha 
        F/A   Bb9
Eu vou te honrar

                      F
Quem mandou largar a rede
                    C4
Quem mandou você parar
                 Gm7(11)
Volte para o mar alto

No lugar da tua vergonha 
        F/A   Bb9
Eu vou te honrar

Filho, Eu vou te honrar

[Final]

Parte 1 de 2

   F9           C4
E|-----------8------------8-----------------|
B|----8----8-------8----8-------------------|
G|-10---10------10---10---------------------|
D|------------------------------------------|
A|-8----------------------------------------|
E|--------------8---------------------------|

Parte 2 de 2

   Dm7(11)            Bb   
E|-----------8------------------------------|
B|----8----8----11\10-----------------------|
G|-10---10------------7---------------------|
D|------------------------------------------|
A|------------------------------------------|
E|-10-----------------6---------------------|

Clipes

Cifra Club Pro

Aproveite o Cifra Club com benefícios exclusivos e sem anúncios
Cifra Club Pro
Aproveite o Cifra Club com benefícios exclusivos e sem anúncios