Não Pare

Midian Lima

A
X0P222X
A9
12
X02200
B/D#
123
X69X7X
B4
134
X24400
B4/D#
123
X64400
Bb
234
688766
Bb9
34
X13311
C#m
234
X46654
C#m7
134
X46600
C4
234
X35563
Dm7(11)
234
10X101088
E
123
022100
E/G#
134
4X2400
E5
134
079900
E7M
123
079800
F
234
133211
F#5
12
2XXX2X
F#m
123
X911X10X
F#m7(11)
123
2X2200
F/A
1234
5X356X
F9
34
X8101088
Gm7(11)
234
3X3311
Tom: G
[Intro]

#1t1##1t2#E|-0---0---7--0---0---7--0---0---7--5p4-----|
B|---7---7------7---7------7---7------------|
G|--------------------------------------6---|
D|------------------------------------------|
A|-7----------6----------4--------------0---|
E|------------------------------------------|#/1t2##/1t1#

[Primeira Parte]

       E5            B/D#
Amanheceu, nada pesquei
     F#5            E/G#    A
Parecia ser apenas mais um dia
 
Como qualquer outro

           E5
Estava cansado
                   B/D#
Sem forças, desanimado
     F#m               E/G#  A
Decidida a largar tudo e  parar

[Dedilhado Primeira Parte]

Parte 1 de 2

#2t1#  E5   B/D#  F#5  E/G#  A
#2t2#E|------------------------------------------|
B|------7----2----------2-------------------|
G|-9--------------4-------------------------|
D|-9----9---------2-----2-------------------|
A|-7----6---------------0-------------------|
E|-----------2----4-------------------------|#/2t2##/2t1#

Parte 2 de 2

#3t1#   E5  B/D#   F#m  E/G#  A  
#3t2#E|------------------------------------------|
B|------7--9--10----5----2------------------|
G|-9----------------4-----------------------|
D|-9----9-----11---------2------------------|
A|-7----6------9---------0------------------|
E|------------------4-----------------------|#/3t2##/3t1#


[Pré-refrão]

 E           
Deus conhece tua estrutura
 B4/D#
Sabe o que está fazendo
 C#m7
Mesmo que seja difícil
     A9
Não pares, Ele está vendo

 E
Colheu todas tuas lágrimas
B4/D#
E mandou a ti falar
 F#m7(11)
Pegue o que Ele te entregou
         E/G#   A9
E volte para o mar, que é o teu lugar

[Refrão]

                      E
Quem mandou largar a rede
                    B4
Quem mandou você parar
                 F#m7(11)
Volte para o mar alto

No lugar da tua vergonha
        E/G#  A9
Eu vou te honrar

                      E
Quem mandou largar a rede
                    B4
Quem mandou você parar
                 F#m7(11)
Volte para o mar alto

No lugar da tua vergonha
        E/G#  A9
Eu vou te honrar

Filho, Eu vou te honrar

[Intro]

E  B/D#  C#m  A

[Pré-refrão]

 E           
Deus conhece tua estrutura
 B4/D#
Sabe o que está fazendo
 C#m7
Mesmo que seja difícil
     A9
Não pares, Ele está vendo

 E
Colheu todas tuas lágrimas
B4/D#
E mandou a ti falar
 F#m7(11)
Pegue o que Ele te entregou
         E/G#   A9
E volte para o mar, que é o teu lugar

[Refrão]

                      E
Quem mandou largar a rede
                    B4
Quem mandou você parar
                 F#m7(11)
Volte para o mar alto

No lugar da tua vergonha
        E/G#  A9
Eu vou te honrar

                      E
Quem mandou largar a rede
                    B4
Quem mandou você parar
                 F#m7(11)
Volte para o mar alto

No lugar da tua vergonha
        E/G#  A9
Eu vou te honrar

Filho, Eu vou te honrar

[Ponte]

E  B4/D#        C#m7              A9
         Ó, filho, a noite já passou
               E
A tua hora chegou
             B4/D#
Pegue a tua rede e volte para o mar
C#m7                A9
     Vou te esperar    no mar

[Segunda Parte]

F#m7(11)             E/G#   A9
         Não é hora de   parar
                     B4   C#m7
Deus contemplou seu caminhar
                         E7M
Eu sei, é difícil prosseguir
                    F#m7(11)
Quando tudo lhe faltar

              E/G#  A9
Esse cenário vai mudar
             B4  C#m7
A tua hora chegará
              B4
Há tempo pra tudo

[Refrão Final]

                      F
Quem mandou largar a rede
                    C4
Quem mandou você parar
                 Gm7(11)
Volte para o mar alto

No lugar da tua vergonha 
        F/A   Bb9
Eu vou te honrar

                      F
Quem mandou largar a rede
                    C4
Quem mandou você parar
                 Gm7(11)
Volte para o mar alto

No lugar da tua vergonha 
        F/A   Bb9
Eu vou te honrar

Filho, Eu vou te honrar

[Final]

Parte 1 de 2

#4t1#   F9           C4
#4t2#E|-----------8------------8-----------------|
B|----8----8-------8----8-------------------|
G|-10---10------10---10---------------------|
D|------------------------------------------|
A|-8----------------------------------------|
E|--------------8---------------------------|#/4t2##/4t1#

Parte 2 de 2

#5t1#   Dm7(11)            Bb   
#5t2#E|-----------8------------------------------|
B|----8----8----11\10-----------------------|
G|-10---10------------7---------------------|
D|------------------------------------------|
A|------------------------------------------|
E|-10-----------------6---------------------|#/5t2##/5t1#
Composição: Priscila de PaulaColaboração e revisão: Leandro Sandim
Videoaula NÃO PARE (aula de violão completa)