Olharei Para o Alto

Midian Lima

A
123
X02220
A7
12
X02020
Am
123
X02210
B
234
X24442
Bb
234
X13331
Bb/F
1234
X8876X
Bbm
234
X13321
C
123
X32010
C#m
234
X46654
C4
134
X3301X
Cm
234
X35543
Dm
123
XX0231
E
123
022100
E/G#
1234
4X245X
Em7(b5)
1234
XX2333
F
234
133211
F#/A#
1234
6X467X
F#m
34
244222
F/A
1234
5X356X
F7
34
131211
G/B
123
X20033
Gm
34
355333
Tom: G
[Intro] E  C#m  F#m  Am

[Primeira Parte]

E                  C#m
  Mesmo na tribulação
                     F#m
Posso não ver a sua mão
                       Am
Mas sei que posso confiar
                        E
Em Deus eu posso descansar
                        C#m
Mesmo vendo tudo se acabar
                        F#m
Sei que nada vai me faltar
                       Am
Lá do alto vem a provisão

O meu milagre está em suas mãos

[Refrão]

E
  Eu olharei pro alto
C#m
    De onde vem socorro
F#m
    E é firme na rocha
Am
   Que eu terei vitória
E
  Eu olharei para o céu
C#m
    De onde vem a benção
F#m
    Terei o testemunho
A
  E contarei ao mundo
       B       E
Que tu és meu Deus

[Solo] E  C#m  F#/A#  Am

Parte 1 de 2

#1t1##1t2#E|-5/7-7-5-5-4-4--------7-5-5-4-4----------------|
B|----------------5-7-5--------------------------|
G|-----------------------------------------------|
D|-----------------------------------------------|
A|-----------------------------------------------|
E|-----------------------------------------------|#/1t2##/1t1#

Parte 2 de 2

#2t1##2t2#E|-------9--------8-7-5--------------------------|
B|-5-7-5---9-7-5---------5-----------------------|
G|-------------------------5-4~~-----------------|
D|-----------------------------------------------|
A|-----------------------------------------------|
E|-----------------------------------------------|#/2t2##/2t1#

[Primeira Parte]

E                  C#m
  Mesmo na tribulação
                     F#m
Posso não ver a sua mão
                       Am
Mas sei que posso confiar
                        E
Em Deus eu posso descansar
                        C#m
Mesmo vendo tudo se acabar
                        F#m
Sei que nada vai me faltar
                       Am
Lá do alto vem a provisão

O meu milagre está em suas mãos

[Refrão]

E
  Olharei pro alto
C#m
    De onde vem socorro
F#m
    E é firme na rocha
Am
   Que eu terei vitória
E
  Eu olharei para o céu
C#m
    De onde vem a benção
F#m
    Terei o testemunho
A
  E contarei ao mundo
       B       E
Que tu és meu Deus

[Segunda Parte]

                A
Quando a minha força se esgotar
           E/G#
E tudo em mim desmoronar
      F#/A#
Então olharei para ti
   Am           E
E confiarei em teu amor
E/G#        A
E quando o vento então soprar
               E/G#
Eu sei que em ti vou me firmar
             F#/A#
Então confiarei em ti
   Am              B            C
E na promessa que fez a mim, a mim

[Refrão +1/2 Tom]

F
  Eu olharei para o alto
Dm
   De onde vem socorro
Gm
   E é firme na rocha
Bbm
    Que eu terei vitória
F                  ( Em7(b5)  A7 )
  Eu olharei para o céu
Dm          Gm    Cm  F7
   De onde vem a ben_ção
Bb               F/A
   Terei o testemunho
Gm                Bb/F        C4  C
   E contarei ao mundo que tu és meu Deus

[Final] F  Dm  G/B  Bbm  F

[Solo Final]

Parte 1 de 2

#3t1##3t2#E|-6/8-8-6-6-5-5--------8-6-6-5-5----------------|
B|----------------6-8-6--------------------------|
G|-----------------------------------------------|
D|-----------------------------------------------|
A|-----------------------------------------------|
E|-----------------------------------------------|#/3t2##/3t1#

Parte 2 de 2

#4t1##4t2#E|-------10--------9-8-6-------------------------|
B|-6-8-6----10-8-6--------6----------------------|
G|--------------------------6-5~~----------------|
D|-----------------------------------------------|
A|-----------------------------------------------|
E|-----------------------------------------------|#/4t2##/4t1#
Composição: Gabriela GomesColaboração e revisão: Kleberdeivid diasLeticia OliveiraJoveniano Souzae mais 5