busca

Olharei Para o Alto

Midian Lima

Tom: A
[Intro] E  C#m  F#m  Am

E           C#m
  Mesmo na tribulação
            F#m
Posso não ver a sua mão
             Am
Mas sei que posso confiar
             E
Em Deus eu posso descansar
            C#m
Mesmo vendo tudo se acabar
              F#m
Sei que nada vai me faltar
              Am
Lá do alto vem a provisão
                E
O meu milagre está em suas mãos

Eu olharei para o alto
C#m
  De onde vem socorro
F#m
  E é firme na rocha
Am
  Que eu terei vitória
E
  Eu olharei para o céu
C#m7
  De onde vem a benção
F#m
  Terei o testemunho
A
  E contarei ao mundo
   B      E
Que tu és meu Deus

[Solo] E  C#m  F#  Am

E|-5/7-7-7--5-5--4-4-----7--5-5--4-4------7/9-------7/8-7-5------|
B|------------------5-7-5-----------5-7-5-----9-7--5--------5----|
G|------------------------------------------------------------5-4|
D|---------------------------------------------------------------|
A|---------------------------------------------------------------|
E|---------------------------------------------------------------|

[Primeira Parte]

E           C#m
  Mesmo na tribulação
            F#m
Posso não ver a sua mão
             Am
Mas sei que posso confiar
             E
Em Deus eu posso descansar
            C#m
Mesmo vendo tudo se acabar
              F#m
Sei que nada vai me faltar
              Am
Lá do alto vem a provisão
                E
O meu milagre está em suas mãos

Eu olharei para o alto
C#m
  De onde vem socorro
F#m
  E é firme na rocha
Am
  Que eu terei vitória
E
  Eu olharei para o céu
C#m7
  De onde vem a benção
F#m
  Terei o testemunho
A
  E contarei ao mundo
   B      E
Que tu és meu Deus

        A
Quando a minha força se esgotar
       E/G#
E tudo em mim desmoronar
      F#
Então olharei para ti
  Am6        E
E confiarei em teu amor
      A
E quando o vento então soprar
         E/G#
Eu sei que em ti vou me firmar
       F#/A#
Então confiarei em ti
  Am        B        C
E na promessa que fez a mim, a mim

F
  Eu olharei para o alto
Dm7
  De onde vem socorro
Gm
  E é firme na rocha
Bbm6
  Que eu terei vitória
F
  Eu olharei para o céu
Dm7         Cm    F7
  De onde vem a minha benção
Bb         F/A
  Terei o testemunho
Gm         Bb/F       F/G    C
  E contarei ao mundo que tu és meu Deus

[Final] F  Bb/D  Dm7  Bbm6  F

E|-7/9-9-9--7-7--6-6-----9--7-7--6-6------9/11-------9/10-9-7-----|
B|------------------7-9-7-----------7-9-7-----11-9--7--------7----|
G|------------------------------------------------------------7-6-|
D|----------------------------------------------------------------|
A|----------------------------------------------------------------|
E|----------------------------------------------------------------|

Clipes

Cifra Club Pro

Aproveite o Cifra Club com benefícios exclusivos e sem anúncios
Cifra Club Pro
Aproveite o Cifra Club com benefícios exclusivos e sem anúncios