Isaias 6

Morada

A
123
X02220
A/C#
1234
X4X255
Bm
234
X24432
D
123
XX0232
E
123
022100
F#m
34
244222
Tom: G
[Intro] A  D  F#m  E  D  Bm  D  E

#1t1##1t2#E|-------------12-12-12----------------------------|
B|-10-10-10-10----------14-14-14-14--14~-----------|
G|-------------------------------------------------|
D|-------------------------------------------------|
A|-------------------------------------------------|
E|-------------------------------------------------|#/1t2##/1t1#

#2t1##2t2#E|-------------12-12-12-14-------------------------|
B|-10-10-10-10-------------14-14-14-14--14~--------|
G|-------------------------------------------------|
D|-------------------------------------------------|
A|-------------------------------------------------|
E|-------------------------------------------------|#/2t2##/2t1#

#3t1##3t2#E|-------------12-12-12----------------------------|
B|-10-10-10-10----------14-14-14-14--14~-----------|
G|-------------------------------------------------|
D|-------------------------------------------------|
A|-------------------------------------------------|
E|-------------------------------------------------|#/3t2##/3t1#

#4t1##4t2#E|-------------12-12-12-14-------------------------|
B|-10-10-10-10-------------14-14-14-14--14~--------|
G|-------------------------------------------------|
D|-------------------------------------------------|
A|-------------------------------------------------|
E|-------------------------------------------------|#/4t2##/4t1#

#5t1##5t2#E|-------------------------------------------------|
B|-12-12-12-12-12-12-14-14-12-12-14-14-15-15-14-14-|
G|-------------------------------------------------|
D|-------------------------------------------------|
A|-------------------------------------------------|
E|-------------------------------------------------|#/5t2##/5t1#

#6t1##6t2#E|-------------------------------------------------|
B|-12-12-12-12-12-12-12-12-12-12-14-14-15-15-14-14-|
G|-------------------------------------------------|
D|-------------------------------------------------|
A|-------------------------------------------------|
E|-------------------------------------------------|#/6t2##/6t1#

#7t1##7t2#E|-------------------------------------------------|
B|-------------14---------------------12-------10--|
G|-11-11-11-11----11-11-11---11-11-11----9-9-9-----|
D|-------------------------------------------------|
A|-------------------------------------------------|
E|-------------------------------------------------|#/7t2##/7t1#

#8t1##8t2#E|-------------------------------------------------|
B|-------------------------------------------------|
G|-7-7-7--6~---------------------------------------|
D|-------------------------------------------------|
A|-------------------------------------------------|
E|-------------------------------------------------|#/8t2##/8t1#

 A              E                       D
Vi o Senhor sentado no alto e sublime trono
                  F#m                   E
E a orla de Suas vestes enchiam o templo
                 A             D
Enquanto anjos voavam sobre Você

               F#m
Com duas asas cobriam o Seu rosto
                 E
Com outras duas cobriam Seus pés
                 A
Cantavam uma canção uns para os outros
           D
Santo é Você
Santo é Você Senhor
               F#m
Com duas asas cobriam o Seu rosto
                 E
Com outras duas cobriam Seus pés
                 A
Cantavam uma canção uns para os outros
           D
Santo é Você
Santo é Você

          A
Que toda terra se encha com a Sua Glória
          D
Que toda casa se encha com a Tua fumaça
              F#m           E
E que os meus olhos sempre vejam o Rei da Glória
               D
Senhor dos senhores e Eterno Deus
               Bm
Senhor dos senhores e Eterno Deus

          A
Que toda terra se encha com a Sua Glória
          D
Que toda casa se encha com a Tua fumaça
              F#m           E
E que os meus olhos sempre vejam o Rei da Glória
               D
Senhor dos senhores e Eterno Deus
               Bm
Senhor dos senhores e Eterno Deus

( F#m  E  D  Bm )
( F#m  E  D  Bm )

#9t1##9t2#E|------------------------------------------------|
B|------------------------------14---------12-----|
G|-13~-9-6--13~-9-6--11-11-11-11---11-11-11-------|
D|------------------------------------------------|
A|------------------------------------------------|
E|------------------------------------------------|#/9t2##/9t1#

#10t1##10t2#E|------------------------------------------------|
B|--------------10--------------------------------|
G|-9-9-9---9-9-9----7-7-7--6~---------------------|
D|------------------------------------------------|
A|------------------------------------------------|
E|------------------------------------------------|#/10t2##/10t1#

#11t1##11t2#E|------------------------------------------------|
B|------------------------------14---------12-----|
G|-13~-9-6--13~-9-6--11-11-11-11---11-11-11-------|
D|------------------------------------------------|
A|------------------------------------------------|
E|------------------------------------------------|#/11t2##/11t1#

#12t1##12t2#E|------------------------------------------------|
B|--------------10--------------------------------|
G|-9-9-9---9-9-9----7-7-7--6~---------------------|
D|------------------------------------------------|
A|------------------------------------------------|
E|------------------------------------------------|#/12t2##/12t1#

 A              E                       D
Vi o Senhor sentado no alto e sublime trono
                  F#m                   E
E a orla de Suas vestes enchiam o templo
                 A             D
Enquanto anjos voavam sobre Você

               F#m
Com duas asas cobriam o Seu rosto
                 E
Com outras duas cobriam Seus pés
                 A/C#
Cantavam uma canção uns para os outros
           D
Santo é Você
Santo é Você
               F#m
Com duas asas cobriam o Seu rosto
                 E
Com outras duas cobriam Seus pés
                 A
Cantavam uma canção uns para os outros
           D
Santo é Você
Santo é Você

          A
Que toda terra se encha com a Sua Glória
          D
Que toda casa se encha com a Tua fumaça
              F#m           E
E que os meus olhos sempre vejam o Rei da Glória
               D
Senhor dos senhores e Eterno Deus
               Bm
Senhor dos senhores e Eterno Deus
          A
Que toda terra se encha com a Sua Glória
          D
Que toda casa se encha com a Tua fumaça
              F#m           E
E que os meus olhos sempre vejam o Rei da Glória
               D
Senhor dos senhores e Eterno Deus
               Bm
Senhor dos senhores e Eterno Deus

             D                       F#m  E
O meu desejo é sentir Você, ó rio perene
                  D
E com o calor do fogo moldado ser
           F#m          E
Pelo poder de Suas mãos
              D
Ó vento impetuoso
                   F#m                  E
Balança-me e direciona-me ao Teu encontro
               D                         F#m        E
E junto com os anjos eu cantarei uma canção de amor
             D                       F#m  E
O meu desejo é sentir Você, ó rio perene
                  D
E com o calor do fogo moldado ser
           F#m          E
Pelo poder de Suas mãos
              D
Ó vento impetuoso
                   F#m                  E
Balança-me e direciona-me ao Teu encontro
               D                         F#m        E
E junto com os anjos eu cantarei uma canção de amor

          A
Que toda terra se encha com a Sua Glória
          D
Que toda casa se encha com a Tua fumaça
              F#m           E
E que os meus olhos sempre vejam o Rei da Glória
               D
Senhor dos senhores e Eterno Deus
               Bm
Senhor dos senhores e Eterno Deus
          A
Que toda terra se encha com a Sua Glória
          D
Que toda casa se encha com a Tua fumaça
              F#m           E
E que os meus olhos sempre vejam o Rei da Glória
               D
Senhor dos senhores e Eterno Deus
               Bm
Senhor dos senhores e Eterno Deus
Composição: Junior MenezesColaboração e revisão: Gustavo RafaelLucas KappaunVinicius SantosDavi Fariase mais 2