busca

Jesus Em Tua Presença

Ministério Morada

Tom: E
[Intro] A9  B9  C#m  G#m
        A9  B9   F#
        A9  B9   F#

E|--------------------------------------------------------|
B|------9-10-9---7-9-7---5-7-5----------------------------|
G|----9---------------------------------------------------|
D|--------------------------------------------------------|
A|--------------------------------------------------------|
E|--------------------------------------------------------|

E|--------------------------------------------------------|
B|------9-10-9---7-9-7---12--5----------------------------|
G|----9---------------------------------------------------|
D|--------------------------------------------------------|
A|--------------------------------------------------------|
E|--------------------------------------------------------|

E|--------------------------------------------------------|
B|------9-10-9---7-9-7---5-7-5-7-9------------------------|
G|----9-----------------------------6--11-----------------|
D|----------------------------------------9---------------|
A|--------------------------------------------------------|
E|--------------------------------------------------------|

 G#m            A9     B9          C#m
Jesus em Tua presença reunimo-nos aqui
    G#m        A9       B9            E9 D#
Contemplamos Tua face e rendemo-nos a Ti
C#m       G#m           A9           B9   E9 D#
Pois um dia Tua morte trouxe vida a todos nós
      C#m          A9       B9         E9 D#
E nos deu completo acesso ao coração do Pai
   C#m         G#m7(11)     A9   B9   C#m
O véu que separava já não separa mais
                  G#m7(11)
A luz que outrora apagada
 A9            B9               F#
Agora brilha e cada dia brilha mais

A9        B  C#m G#m7  A9     B9     C#m          G#m7
Só pra te   ado rar   e    fa     zer Teu no  me grande
A9    B9     C#m      B9      F#
E Te dar o louvor que é devi do
A9       B9    E9
Estamos nós aqui

Clipes

Cifra Club Pro

Aproveite o Cifra Club com benefícios exclusivos e sem anúncios
Cifra Club Pro
Aproveite o Cifra Club com benefícios exclusivos e sem anúncios