busca

Só Tu És Santo

Ministério Morada

Tom: B (forma dos acordes no tom de A) Capotraste na 2ª casa
G
Tudo está preparado aqui
C9
A casa e o meu coração também
G/B                      C
Tu És o único motivo que me fez
D    C
Chegar
G
Os filhos já estão chegando aqui
C
Agora, somos dois ou três ou mais
G/B                     
Encontre o meu coração disposto a       
   C    D    C
Queimar por Ti

         G/B
Todos os versos e canções que eu 
C
Conseguir cantar
         G/B                    
Todas as vezes quebrantado, só 
C       
Quero te falar
Em                D/F#       C
Teu é o Reino e a Glória pra sempre
Em                D/F#     C
Teu é o domínio e o poder, amém, 
Amém

Em                D/F#       C
Teu é o Reino e a Glória pra sempre
Em                D/F#     C
Teu é o domínio e o poder, amém, 
Amém

[solo]

E|-----------------------------|
B|--17--19--14---14--12--10----|
G|-----------------------------|
D|-----------------------------|
A|-----------------------------|
E|-----------------------------|

E|-----------------------------|
B|--17--19--14-----12--14--12--|
G|-----------------------------|
D|-----------------------------|
A|-----------------------------|
E|-----------------------------|

E|-----------------------------|
B|--14--12----10---12/14-------|
G|-----------------------------|
D|-----------------------------|
A|-----------------------------|
E|-----------------------------|

E|-------------------------------|
B|--12--14--14/15--14--12--10--10|
G|-------------------------------|
D|-------------------------------|
A|-------------------------------|
E|-------------------------------|

E|------------------------------|
B|-12--14--12--14--12--10--12/14|
G|------------------------------|
D|------------------------------|
A|------------------------------|
E|------------------------------|

E|----------------------------------|
B|--12--14--14/15--14--12--10/17--14|
G|----------------------------------|
D|----------------------------------|
A|----------------------------------|
E|----------------------------------|

E|-----------------------------|
B|--17--19--14---14--12--10----|
G|-----------------------------|
D|-----------------------------|
A|-----------------------------|
E|-----------------------------|

E|-----------------------------|
B|--17--19--14-----------------|
G|-----------------------------|
D|-----------------------------|
A|-----------------------------|
E|-----------------------------|

E|----------------------------------|
B|--12--14--12--14--12--10--12/14---|
G|----------------------------------|
D|----------------------------------|
A|----------------------------------|
E|----------------------------------|

E|---------------------------------|
B|--12--14--14/15--14--12--10--10--|
G|---------------------------------|
D|---------------------------------|
A|---------------------------------|
E|---------------------------------|

E|----------------------------------|
B|--12--14--12--14--12--10--12/14---|
G|----------------------------------|
D|----------------------------------|
A|----------------------------------|
E|----------------------------------|

E|----------------------------------|
B|--12--14--14/15--14--12--10/17--14|
G|----------------------------------|
D|----------------------------------|
A|----------------------------------|
E|----------------------------------|

[refrão]

         G
Só Tu És Santo
         C
Só Tu És Santo
                  G/B
Não há outro como Tu
                  Am
Não há outro como Tu
                  G/B
Não há outro como Tu
                  C
Não há outro como Jesus

         G
Só Tu És Santo
         C
Só Tu És Santo
                  G/B
Não há outro como Tu
                  Am
Não há outro como Tu
                  G/B
Não há outro como Tu
                  C
Não há outro como Jesus

Clipes

Cifra Club Pro

Aproveite o Cifra Club com benefícios exclusivos e sem anúncios
7 dias grátis
Cifra Club Pro
Aproveite o Cifra Club com benefícios exclusivos e sem anúncios
7 dias grátis