busca

In My Eyes

Minor Threat

Afinação Padrão: G D A E


Intro:
G--------------------------|
D--------------------------| 3x (parte lenta)
A-7-6-5-------5-7--7-7-7-7-|
E--------5-7---------------|

G------------------------------------|
D------------------------------------| 5x (parte rápida)
A-7-6-5-------5-7--7-7-7-7-7-7-7-7-7-|
E--------5-7-------------------------|

G----------9-|
D-------9----|
A----7-------|
E-0----------|


1ª parte:
(começa só a guitarra, o baixo entra junto com a bateria)
G----------------------------------------------------------------------|
D----------------------------------------------------------------------|
A--------------3---6---8-8---------------------------------3---6---8-8-|
E----------------5---6-----3-3-3-3-3-3-3-3-3-3-3-3-3-3-3----5---6------|

(You tell me...)
G--------------------------------------------|
D--------------------------------------------| 4x
A--------------------------------3---6---8-8-|
E-3-3-3-3-3-3-3-3-3-3-3-3-3-3-3----5---6-----|


Refrão:
G-------------------------------|
D-------------------------------| 4x
A---5-5----5-5------------------|
E-3------3------5-5-5-5-7-7-7-7-|

(And it doesn't...)
G---------------------------------------------------------------|
D---------------------------------------------------------------|
A---------------5-5-5-5-5-5-5-5-----------------5-5-5-5-5-5-5-5-|
E-0-0-0-0-0-0-0-----------------0-0-0-0-0-0-0-0-----------------|

G---------------------------------------------------------------|
D---------------------------------------------------------------|
A---------------5-5-5-5-5-5-5-5---------------------------------|
E-0-0-0-0-0-0-0-----------------0-0-0-0-0-0-0-0-3-3-3-3-3-3-3-3-| (emendado com 2ª parte)


2ª parte:
G----------------------------------------------------------|
D----------------------------------------------------------|
A----------------------------------------------3---6---8-8-|
E-3-3-3-3-3-3-3-3-3-3-3-3-3-3-3-3-3-3-3-3-3-3----5---6-----|

G--------------------------------------------|
D--------------------------------------------|
A--------------------------------3---6---8-8-|
E-3-3-3-3-3-3-3-3-3-3-3-3-3-3-3----5---6-----|

(You tell me...)
G--------------------------------------------|
D--------------------------------------------| 4x
A--------------------------------3---6---8-8-|
E-3-3-3-3-3-3-3-3-3-3-3-3-3-3-3----5---6-----|


Refrão:
G-------------------------------|
D-------------------------------| 4x
A---5-5----5-5------------------|
E-3------3------5-5-5-5-7-7-7-7-|

(And it doesn't...)
G---------------------------------------------------------------|
D---------------------------------------------------------------|
A---------------5-5-5-5-5-5-5-5-----------------5-5-5-5-5-5-5-5-|
E-0-0-0-0-0-0-0-----------------0-0-0-0-0-0-0-0-----------------|

G---------------------------------------------------------------|
D---------------------------------------------------------------|
A---------------5-5-5-5-5-5-5-5---------------------------------|
E-0-0-0-0-0-0-0-----------------0-0-0-0-0-0-0-0-3-3-3-3-3-3-3-3-| (emendado com o final)

(Final)
G----------------------------------------------------------|
D----------------------------------------------------------| 
A----------------------------------------------3---6---8-8-|
E-3-3-3-3-3-3-3-3-3-3-3-3-3-3-3-3-3-3-3-3-3-3----5---6-----|


Use palhetadas alternadas, você pode dobrar o número de batidas
e vai soar melhor, principalmente nas partes mais rápidas.
Bons estudos! Siga-me no Twiter, @joaoxfrango

Clipes