busca

Minor Threat

Minor Threat

Tom: F
1st tab.. great song!

intro/verse
E----------------------------|X8
B----------------------------|
G----------------------------|
D-7770-----------30----------|
A-5550-7770-3330-10-3--------|
E------5550-1110----1--------|


E--------------------------------|X1
B--------------------------------|
G--------------------------------|
D--------------------------------|
A-9999-5555-9999-7777-9999-5555-9|
E-7777-3333-7777-5555-7777-3333-7|

Chorus
E--------------------------------|X9
B--------------------------------||---|END ON
G--------------------------------||---|
D-4xx-----8xx-4------------------||-4-|
A-2xx-3xx-6xx-2------------------||-2-|
E-----1xx------------------------||---|

   


Repeat order once there ya go!

Clipes