Chinga Tu Madre

Molotov

Instrumento: Baixo
Chinga tu Madre
Donde Jugaran las Niñas?
Tabbed By: Irwin Alvarado
BassTabArchive Army member
*

This song is very easy to play, (if you have 2 bass guitars)I'm only putting 
what both are playing at the same time..

Intro:
|---------------------|       |---------------3----|
|-----0-4-4-4-4-0-2--0|       |----0-4-4-4-4-----4-|
|---------------------|       |--------------------|
|-0h2-----------------|X5 then|-2------------------|
Verse:

|----------------|
|*---4----------*|
|*-----------0h2*|
|-2------2-2-----| Repeat as needed

Chorus:
Intro without the last bar

Repeat Verse

Repeat chorus


Verse3: No bass. then Repeat verse
Then play Bridge
Slap:
|--------------------|
|---4-2-----0--------|
|-------4-2---2-0h2-0|
|-2------------------|

Repeat chorus as needed
Composição: Miguel Angel Huidobro PreciadoColaboração e revisão: