Frijolero

Molotov

Am
123
X02210
Dm
123
XX0231
Em
12
022000
Tom: G

Bueno se que ya tiene un buen la canción en la radio, y ya debería de haber
un tab descente, pues esta aqui!.

la canción no me gusta mucho en cuanto a musica (excepto la batería que es lo
que la diferencia de las canciones rancheras, :), la letra esta excelente

#1t1#Intro
#1t2#e--------------------------------
b--------------------------------
g--------------------------------
D--------------------------------
A------10-11-12-12-12-12-10-8----
E--12-------------------------12-#/1t2##/1t1#

Intro parte 2 y Coro

Dm Am Em Am


Verso

Am Dm Em Am

Solo (jajaja)

#2t1##2t2#e-------------------------------
b-------------------------------
g-------------------------------
D-------------------------------
A-----10-11-12-12-12-12-10-8----
E-12-------------------------12-#/2t2##/2t1#

#3t1##3t2#e--------------------12-10-8------------------------------------
b--13-12-13-12-13-12---------10--8-10-12-13-12-13-12-13-12-8-10-
g---------------------------------------------------------------
D---------------------------------------------------------------
A---------------------------------------------------------------
E---------------------------------------------------------------#/3t2##/3t1#

#4t1##4t2#e---------------------------12-10-8------------------------------------------
b-8-10-12-13-12-13-12-13-12---------10-8-10-12-13-12-13-12-13-12-13-12-13-15-
g----------------------------------------------------------------------------
D----------------------------------------------------------------------------
A----------------------------------------------------------------------------
E----------------------------------------------------------------------------#/4t2##/4t1#

#5t1##5t2#e-------------------------------
b-------------------------------
g-------------------------------
D-------------------------------
A-----10-11-12-12-12-12-10-8----
E-12-------------------------12-#/5t2##/5t1#

Bueno eso es todo el solo esta demasiado fácil, pero se oye bien, ojala y les haya gustado

*, sug3r3nci@s o cualquier otra cosa a :
*
Composição: Juan Francisco Ayala / Miguel Angel Huidobro Preciado / Randy C. Ebright WidemanColaboração e revisão: