Hit Me

Molotov

Am
123
X02210
Dm
123
XX0231
Tom: G
#1t1#Intro:
#1t2#E|----5--------5--------5--------0----------------|
B|-------6--------6--------0-----------0-----0----|
G|-7--------7--------7--------5-----5-----5-----5-|
D|------------------------------------------------|
A|------------------------------------------------|
E|------------------------------------------------|#/1t2##/1t1#
 
#2t1##2t2#E|----5--------5--------5--------0----------------|
B|-------6--------6--------0-----------0-----0----|
G|-7--------7--------7--------5-----5-----5-----5-|
D|------------------------------------------------|
A|------------------------------------------------|
E|------------------------------------------------|#/2t2##/2t1#

#3t1##3t2#E|----5--------5--------5--------0----------------|
B|-------6--------6--------0-----------0-----0----|
G|-7--------7--------7--------5-----5-----5-----5-|
D|------------------------------------------------|
A|------------------------------------------------|
E|------------------------------------------------|#/3t2##/3t1#

#4t1##4t2#E|----5--------5--------5--0----------------------|
B|-------6--------6--------1----------------------|
G|-7--------7--------7-----2----------------------|
D|-------------------------2----------------------|
A|------------------------------------------------|
E|------------------------------------------------|#/4t2##/4t1#

Verso:
 Am
Cuando era chico queria ser como superman
 Dm                       Am
pero ahora ya quiero ser diputado del PAN, 

o del PRI o del PRD
 Dm
o cualquier cosa que tenga un poco de poder
  Am
quiero convertirme en musico politico
  Dm
y construirle un piso al periferico
  Am
quiero acabar con el trafico
  Dm
tengo que entrar a la historia de Mexico
  Am
y luego miro al pecero que va medio pedo
  Dm
jugando carreras con los pasajeros
  Am
pero hoy tiene que pasar primero
  Dm
sin luces sin frenos, junto al patrullero
  Am
aunque no sepa leer, no sepa hablar
  Dm
el es el que te brinda la seguridad
  Am
asi lo tienes que respetar
  Dm
por que el representa nuestra autoridad

Coro:
 Dm
So you think you're gonna hit me?
 Am
but now i gonna hit you back
 Dm
So you think you're gonna hit me?
 Am
but now i gonna hit you back...
 Dm
So you think you're gonna hit me?
 Am
but now i gonna hit you back...
 Dm
So you think you're gonna hit me?
 Am
hit me ...

Verso:
    Am
Te meterá en el bolsillo una sustancia ilegal
    Dm
y te va a consignar al poder judicial
    Am
y ahi seguro que te ira muy mal
    Dm
por que te harán cocowash con agua mineral
    Am
por que en ti creíamos todos los mexicanos
    Dm
te dimos trabajo pagado y honrado
    Am
te dimos un arma para cuidarnos
    Dm
y el arma que usas la usas para robarnos
    Am
y aunque quieras quejarte con papa gobierno
    Dm
les pides ayuda y te mandan al infierno
    Am
porque tendremos que tirar buen pedo
    Dm
solo te van a dar atole con el dedo
    Am
alla en la fila del departamento de quejas 
    Dm
toparás con lo más de secretarias pendejas
    Am
el siguiente en la fila y asi te la pelas
    Dm
pero el bono sexenal nunca se traspapela

Coro:
Dm
So you think you're gonna hit me?
 Am
but now i gonna hit you back
 Dm
So you think you're gonna hit me?
 Am
but now i gonna hit you back...
 Dm
So you think you're gonna hit me?
 Am
but now i gonna hit you back...
 Dm
So you think you're gonna hit me?
 Am
hit me ...

Verso:
Am
México solidario acabó a los tiranos
Dm
sin la necesidad de ensuciarnos las manos
Am
no podemos pedir resultado inmediato
Dm
de un regalo de 75 años
Am
todos unidos, pedimos un cambio 
Dm
piedra sobre piedra y peldaño a peldaño
Am
solo poder expresarnos
Dm
es palabra de honor de nuestro jefe de estado
Am
te arrepentirás de todo lo que trabajas
Dm
se te ira la mitad de todo lo que tu ganas 
Am
manteniendo los puestos de copias piratas 
Dm
que no pagan impuestos pero son mas baratas 
Am
veo una fuerte campaña de tele y de radio 
Dm
promoviendo la unión entre los ciudadanos
Am
"Mensaje de un pueblo libre y soberano"
Dm
igual que tú Molotov también es mexicano

Salida|
Am
(nos quieren pegar, pegar)
So you think you're gonna hit me?
Dm
(y nos la van a pagar)
but now i gonna hit you back       (8x)
Am
Hit Me
Composição: Francisco HuidobroColaboração e revisão: Johan Beltrán